Acordes para guitarra

Indice Robbie Williams

guitartabs

===================================================
| Robbie Williams                                 |
| SER MEJOR                                       |
| ---???---                                       |
| ---???--- ()                                    |
===================================================

Esta version es la que esta mejor de todas, cuesta un poquito mas de
trabajo pero suena mucho mejor.

G5      3  2  0  0  3  3
C2      X  3  2  0  3  3
Em?     x  2  2  0  3  3
Am?     x  0  2  0  1  3
Am      x  0  2  2  1  0
D       x  x  0  2  3  2
Dsus4   x  x  0  2  3  3
D\F#    2  x  x  x  3  0
Gm      3  5  5  3  3  3
Bb      x  x  3  3  3  1

intro
   G5           C2
e------3-----3-----3---3-----3-----3----3-----3--3---3
b------3---3----3------3---3-----3-------3---3----3--3
g----0---0---0------0----0-----0------0----0----0----0
d-----------------------------------------------------
a------------------3---------------------------------3
E--3---------------------------------3----------------

          G5
Llename la vida
        Em?
Dame tranquilidad
          C2
Calma el temporal
            Dsus4  D
Que hay en mi pel

        G5
Dame primaveras
         Em?
Para disfrutar
            C2
dias que se van
           Dsus4  D
no han de volver

      Am?        D    Dsus4
Puede ser que la voz
      G5  D/F#          Em?
de tu paz y el amor
     Am?    D Dsus4 D
Me ayuden a cambiar
                  G5
y me hagan ser mejor

intro
           G5
Perdona mis manias
       Em?
No doy para mas
       C2
No se aparentar
         Dsus4  D
Soy como soy

          G5
Angel de la guarda
       Em?
Ven y salvame
         C2
Salvame del mal
      Dsus4  D
ayudame.

      Am?         D    Dsus4
Puede ser que la voz
        G5  D/F#          Em?
de tu paz y el amor
     Am?     D Dsus4 D
Me ayuden a cambiar
                  G5
y me hagan ser mejor

 Bb                        Gm
Siempre hay en la vida oportunidad
         Dm
Para amar mejor
         Gm
No hay que amar de mas

   Bb               Gm
Muchos han caido de tanto dar
     Am          D
Y de tanto amar.

Dsus4 D

       G5
Llename la vida
        Em?
Calma el temporal
          C2
Dame tranquilidad
            Dsus4  D
Que hay en mi piel

        G5
Dame primaveras
         Em?
Para disfrutar
            C2
dias que se van
           Dsus4  D
no han de volver

       Am?       D    Dsus4
Puede ser que la voz
        G5  D/F#          Em?
de tu paz y el amor
   Am?        D Dsus4 D
Me ayuden a cambiar
                  G5
y me hagan ser mejor


e---3----3----3--3----3---3--3-----3---------------------
b----0-----0---0--0----0---0---0-------------------------
g------0------------0---0--------0-----------------------   G
d--------------------------------------------------------
a--------------------------------------------------------
E--------------------------------------------------------
fin...

Dedicada a las mujeres que hacen a un hombre mejor.....

===================================================
Colaboracion de Cuauhtemoc Valdez Peņa



Acordes para guitarra
x

Todo acerca de Robbie Williams