Acordes para guitarra

Indice Rivermaya

guitartabs





214
rivermaya
tabbed by: aNOEmous

this is my first time to make a tab, I hope you will understand it (^^;)


   ph      ph    
E|------------------------------------------------------|
B|------------------------------------------------------|
G|-/7--7h9p7--5—4h5p4-----------------------------------|
D|---------------------5--------------5---5-------------|
A|------------------------------5--7----7---------------|
E|------------------------5--7--------------------------|
                               
                                  
E|-----------------------10--12--14--15--15--14--12-------------------|
B|-------------10—10h12------------------------------15/17--14--15----|
G|--11h12--12---------------------------------------------------------|
D|--------------------------------------------------------------------|
A|--------------------------------------------------------------------|
E|--------------------------------------------------------------------|

E|---------15—-19^--17--15--17—19^--19--17--15----------------------|
B|--15/17-----------------------------------------------------------|
G|------------------------------------------------------------------|
D|------------------------------------------------------------------|
A|------------------------------------------------------------------|
E|------------------------------------------------------------------|

E|--15--14--12----------------------------|
B|--------------15--13—12h13p12------------------15/17~~---|
G|----------------------------------0~~~tremolo----------|
D|-------------------------------------------------------|
A|-------------------------------------------------------|
E|-------------------------------------------------------|


**


For comments or corrections, just email me ok?
Acordes para guitarra
x

Todo acerca de Rivermaya