Acordes para guitarra

Indice Rivermaya

guitartabs







Artist: Rivermaya
Song: Umaaraw, Umuulan
Tabbed by: GCF_14
Tuning: EADGBE (standard)


Verse 1:

  
E|----------------------------------------------------------|
B|-------------------------7--------------------------------|
G|------------9------------6-----7--------------------------|(2x)
D|-----7------9------4-----7-----7--------------------------|
A|-----7------7------4-----5-----5--------------------------|
E|-----5-------------2--------------------------------------|

Refrain:

E|----------------------------------------------------------|
B|-------------------7-------------------7------------------|
G|-----9-------------6-----7-------------6-----7------------|
D|-----9------4------7-----7----(2x)-----7-----7------------|
A|-----7------4------5-----5-------------5-----5------------|
E|------------2---------------------------------------------|

  Dahil wala ring mangyayari....................
E|----------------------------------------------------------|
B|-------------------------7--------------7-----------------|
G|------------9------------6-----7--------6----7------------|
D|----7-------9------4-----7-----7--(2x)--7----7------------|
A|----7-------7------4-----5-----5--------5----5------------|
E|----5--------------2--------------------------------------|

Chorus:

E|----------------------------------------------------------|
B|-------------------------7--------------------------------|
G|-----------9-------------6-----7--------------------------|(2x)
D|----7------9-----4-------7-----7--------------------------|
A|----7------7-----4-------5-----5--------------------------|
E|----5------------2----------------------------------------|
  
 
E|----------------------------------------------------------|
B|---------555-7777-9999-10101010-(4x)----------------------|
G|---------------------------------------6666666-7777777----|
D|----------------------------------------------------------|
A|----------------------------------------------------------|
E|----------------------------------------------------------|

(Do VERSE tabs)
Wag kang maawa sa iyong sarili
Isipin na wala ka nang silbi
Sang dambuhalang kalokohan
Bukas sisikat din muli ang araw
Ngunit para lang sa may 
 tiyagang maghintay

(Do REFRAIN tabs)
Kaibigan
Wag kang magpapatalo
Kaibigan
Itaas ang noo

(REPAET CHORUS)


Acordes para guitarra
x

Todo acerca de Rivermaya