Acordes para guitarra

Indice Rivermaya

guitartabs





 Band-Rivermaya
 Song-Panahon na naman
  ------------------------------------------------|
  -12-11h12-----7h9p7--7h9p7----------------------| 2x
  ----------12------------------------------------|
  ------------------------------------------------|

  This is the solo
  e-7-7-5-7-8--7-5-7s-10-10-10s12--10-8-7---------------------------|
  b----------------------------------------8-8--8-10-11-10-8-8------|
  g------------------------------------------------------------7br--|
  d-----------------------------------------------------------------|


Acordes para guitarra
x

Todo acerca de Rivermaya