Acordes para guitarra

Indice Rivermaya

guitartabs

var	lcnt		=	43;
chords["D"]= "xx0232";
freds["D"]= "1";
alts["D"]= "......";
chords["G"]= "320003";
freds["G"]= "1";
alts["G"]= "......";
chords["Em"]= "022000";
freds["Em"]= "1";
alts["Em"]= "......";
chords["Bm"]= "x24432";
freds["Bm"]= "1";
alts["Bm"]= "2.....";
chords["A"]= "x02220";
freds["A"]= "1";
alts["A"]= "......";


Nerbyoso Chords by Rivermaya, www.Ultimate-Guitar.Com
Tab by: alay 
or call me 0432616847!

intro:

e--------------------------------------------------|
b--------------------------------------------------|
g-7------------------------------------------------|
d-7-(3x)7-----9-----7-----5------------------------|(2x)  
a-5-----7-(3x)9-(3x)7-(3x)5-(8x)-------------------|
e-------5-----7-----5-----3------------------------|
(bass first verse)
e--------------------------------------------------|
b--------------------------------------------------|
g--------------------------------------------------|
d--------------------------------------------------|  
a--5(15x)------------------------------------------|
e--------3(15x)------------------------------------|

stanza1:
isang gabing kasama ka
walang ginagawang iba kundi magdusa sa mata
bigla akong tinawag uwian na pala
paglingon ko'y wala ka na
ilang gabi na kong lubhang nagdaramdam
kahit pangalan mo'y hindi ko pa alam


chorus:
sasabihin ko na sana aaminin sa iyo
lahat lahat ng itinatago ng puso kong alipin ng kaba
alam mo naman tayo
walang magawa
nerbyoso

Back to intro (2x) again

stanza2:
nais ko sanang makapiling kang muli
kahit saglit lang kahit lamang sandali
pagkat ilang gabi na kong nagdaramdam
pano kung di ka na muling matagpuan


bridge:
ilang gabi na kong lubhang nagdaramdam
kasi mahal kita hindi mo lang alam

then back to chorus:

yan tapos na sigurado ako dyan tama yan ang chords! 
enjoy sa inyo para yan kay RR sa davao



Acordes para guitarra
x

Todo acerca de Rivermaya