Acordes para guitarra

Indice Rivermaya

guitartabs





214 
rivermaya
bass tab

intro:
|----------------------------------------|
|----------------------------------------|
|-3/5--3--5------7--2--7--2--0-----------|
|----------------------------------------|

verse 1:
|-----------------------------------------------------------------|
|-----------------------------------------------------------------|
|-----------2--2-2-2------------2--2-2-2--0--0-0-0---0--0-0-0-----| 2x
|-0--0-0-0------------0--0-0-0------------------------------------|

chorus 1:
|---------------------------------------------------------------------------|
|---------------------------------------------------------------------------|
|-----------2-2--3-5------------5--3-5------------2-2--3-5------------5--3--|
|-3-3--0-0------------3-3--0-0-----------3-3--0-0------------3-3--0-0-------|

pre-verse:
|------------------------------|
|------------------------------|
|-7--2--7--2---0---------------|
|------------------------------|

verse 2:
|-----------------------------------------------------------------|
|-----------------------------------------------------------------|
|-----------2--2-2-2------------2--2-2-2--0--0-0-0---0--0-0-0-----|2x
|-0--0-0-0------------0--0-0-0------------------------------------|

chorus 2:
|---------------------------------------------------------------------------|
|---------------------------------------------------------------------------|
|-----------2-2--3-5------------5--3-5------------2-2--3-5------------5-3-5-|
|-3-3--0-0------------3-3--0-0-----------3-3--0-0-----------3-3--0-0--------|

solo:
|------------------------------------------------------------------x--------|
|------------------------------------------------------------------x--------|
|-----------2-2--3-5------------5--3-5------------2-2--3-5---------x--5-3-5-|
|-3-3--0-0------------3-3--0-0-----------3-3--0-0-----------3-3--0-x--------|
                                                                   ||
                                                  mute all instruments except
                                                  except the guitar trimolo:

repeat chorus: once  THEN

|-------------------------------------|
|-------------------------------------|
|----------5--3-5-----------5--3-5----|
|-3-3--0-0---------3-3--0-0-----------|

repeat chorus once:
Acordes para guitarra
x

Todo acerca de Rivermaya