Acordes para guitarra

Indice Rivermaya

guitartabs





Intro

G|-------------------------------------|
D|----3-5-6~-5-3------3-3-5-6-6-6-6-6--|
A|----------------6--------------------|
E|--6---------------6------------------|



Pereverse

G|------------------------------|
D|-----------------------3-5-6--|
A|--6-5----6-5----6-5-----------|
E|------6~-----4~-----6~--------|


G|---------------------------------|
D|---------------------------------|
A|--6-5----6-5---------------------|
E|------6~-----4~-4/15-15-15-15-16-|

Verse 

G|--3~--------------------------------|
D|-----3-5-6~-5-3---5---3-5-6~-3h5-3--|
A|----------------6-------------------|
E|--------------------6---------------|

G|--3~--------------------------------|
D|-----3-5-6-8-10-8-6---3-5-6~-3h5-3--|
A|------------------------------------|
E|--------------------6---------------|



G|-------------------------------|
D|--5--5-8-6~------5--6-6-6-6-6--|
A|---------------6---------------|
E|-------------8-----------------|




G|------------------------------|
D|-----------------------3-5-6--|
A|--6-5----6-5----6-5-----------|
E|------6~-----4~-----6~--------|





Verse 2

G|--------------------------------|
D|--8---8-6-----8-----6-8-8h10-8--|
A|----8-----6-8---5-6-------------|
E|--------------------------------|

G|-----------------------|
D|----5-6-5---8---5-5h6--|
A|--8-------8---8--------|
E|-----------------------|

Acordes para guitarra
x

Todo acerca de Rivermaya