Acordes para guitarra

Indice Rise Over Run

guitartabs





These guys are great out of Grimsby, Ontario Canada. You can get the song off
Kazaa or something. You'll need the song to figure out the beat.
Website:www.riseoverrun.net, site could be down search google for the band and
the webpage will be there

RIFF 1 (INTRO)
E|-------------------------------
B|-------------------------------
G|-------------------------------
D|-22222-5-3-0-3-5-22222-5-3-0-3-
A|-22222-5-3-0-3-5-22222-5-3-0-3-
D|-22222-5-3-0-3-5-22222-5-3-0-3-

RIFF 2
E|-------------------------------
B|-------------------------------
G|-------------------------------
D|22-33-22-55-44-33-22-00-7-00-7-
A|22-33-22-55-44-33-22-00-5-00-5-
D|22-33-22-55-44-33-22-00---00---
  
RIFF 3
E|----------------------------------
B|----------------------------------
G|----------------------------------
D|7777-5-7-8888-7*7777-5-7-8888-5-7-
A|5555-3-5-6666-5*5555-3-5-6666-3-5-
D|----------------------------------

RIFF 4
E|-------------------------
B|-------------------------
G|-------------------------
D|0------------3-----2-----
A|0-3-5-6--6-5-3-6-5-2-6-5-
D|0------------3-----2-----

RIFF 5
E|-----------------------------
B|-----------------------------
G|-----------------------------
D|2222-0-0000-3-0000-3-5-0-3-2-
A|2222-0-0000-5-0000-3-5-0-3-2-
D|2222-0-0000---0000-3-5-0-3-2-

RIFF 6

E|---------------
B|---------------
G|---------------
D|0-1-----------3
A|0-1-LATER ADD-3
D|0-1-----------3

BACK TO RIFF 4

RIFF 7
E|----------------------------------------------
B|----------------------------------------------
G|----------------------------------------------
D|0000-1111-0000*00000--0000-1111-0000-33333333-
A|0000-1111-0000*00000--0000-1111-0000-55555555-
D|0000-1111-0000*00000--0000-1111-0000----------

FILL (PALM MUTED)
E|--------
B|--------
G|--------
D|5-3-0-3-
A|5-3-0-3-
D|5-3-0-3-

Acordes para guitarra
x

Todo acerca de Rise Over Run