Acordes para guitarra

Indice Rise Against

guitartabs





RISE AGAINST-GIVE IT ALL

############################################################################

No bass in intro

VERSE
G|--------------------------------------|
D|--------------------------------------|
A|---------------555-------------555777-|
E|---222-222-222-----222-222-222--------| 4x.

CHORUS
G|----------------------------------------------|
D|-----------------6h77777-4444-77-447----------|
A|-------556667777--------------------5555575---|
E|---5555-------------------------------------5-|

VERSE(with no guitar)
G|----------------------------------------------|
D|----------------------------------------------|
A|-------------------555----------------555777--|
E|---222p0h222p0h222-----222p0h222p0h222--------| 4x.


BRIDGE
G|-------------------------------------|end on---|
D|-------------------------------------|---------|
A|----------55555555--------77777777---|--7------|
E|--2222222----------5555555-----------|---------|

OUTRO
G|----------------------------------------|end on--|
D|----------------------------------------|--------|
A|----------7777777---------7777777-------|---7----|
E|---5555555--------55555555--------------|--------|

STRUCTURE
VERSE 4x
CHORUS 2x
VERSE 4x
BRIDGE 4x
CHORUS 2x
Acordes para guitarra
x

Todo acerca de Rise Against