Acordes para guitarra

Indice Rise Against

guitartabs





-----------------------------------------------------------------------------
                        Rise Against - Dancing for Rain
-----------------------------------------------------------------------------

band: rise against
song: dancing for rain
tabbed by: AverageJoe

Tuning: Drop D (E B G D A D)

P = palm mute
H = hammer on
~ = let the note ring

intro
E|-1---2-1---2-1---2-1---2-1---1-1--1----1----1----1--------|
B|---------2-----2-----2-----2--------2----2----2----2------|
G|--------------------------------------3----3----3----3--3-|
D|----------------------------------------------------------|
A|----------------------------------------------------------|
D|----------------------------------------------------------|

E|-4-1---4-1---4-1---4-1---1-2---4--|
B|-----2-----2-----2-----2---0-4-2--|
G|-------------------------------1--|
D|----------------------------------|
A|----------------------------------|
D|----------------------------------|

not sure about this, pretty sure its....wrong
E|--------------------------|
B|-8-9----------------------|
G|-8-9-12-13------12121212--|
D|-x-x--x--x-7777--x-x-x-x--|
A|-6-7-10-11-7777-11111111--|
D|-----------7777-----------|

Acordes para guitarra
x

Todo acerca de Rise Against