Acordes para guitarra

Indice Rise Against

guitartabs





Band- Rise Against
Song- The Art Of Losing

Standard Tuning

Intro/Verse
 --------------------------------------------------------------------------------|
 --------------------------------------------------------------------------------|
 ------5-4-3-------5-4-3------5-4-3--2-(4---6)-----------------------------------|
 5-3-6-------5-3-6-------5-3-6---------(--4--)    (cut out second time of intro--|

Chorus
 ----------------------------------------------------------|
 ----------------------------------------------------------|
 ---------------5-5-5-5-5-5-5-5----------------5-5-5-5-3-2-|
 3-3-3-3-5-5-5-5----------------3-3-3-3-5-5-5-5------------|
Chorus Cont.
 --------------------------------------------------------------------------------------|
 --------------------------------------------------------------------------------------|
 ---------------5-5-5-5-5-5-5-5----------------5-5-5-5-3-2--1-1-1--1-1-1--1-1-1--1-1-1-|
 3-3-3-3-5-5-5-5----------------3-3-3-3-5-5-5-5----------------------------------------|

Bridge
 ----------------------------------|
 ----------------------------------|
 ----------------------------------|
 5-5-5-5-3-3-3-3-5-5-5-5--2-3--1-0-|

Intro:2x
Verse:2x
Chorus:1x
Verse:2x
Chorus:1x
Pause for two guitar riffs
Acordes para guitarra
x

Todo acerca de Rise Against