Acordes para guitarra

Indice Rise Against

guitartabs





Intro:
Gb|--------------------------------------------------------------|
Db|-----------------020------------------------------------------|
Ab|--------323232--3---320---------------------------------------|
Eb|-3-22-0-------3--------3--------------------------------------|

Verse:
Gb|--------------------------------------------------------------|
Db|--------------------------------------------------------------|
Ab|-------------------------3232320------------------------------|
Eb|-33-3333-22-2222-00-0000--------3-----------------------------|

Chorus:
Gb|-------------------------------------------------------------|
Db|-555555-444444-222222----------------------------------------|
Ab|----------------------3232320--------------------------------|
Eb|-------------------------------------------------------------|

Gb|-------------------------------------------------------------|
Db|-555555-444444-222222--020-----------------------------------|
Ab|----------------------3---320--------------------------------|
Eb|-----------------------------3-------------------------------|

Solo = First part of Chorus till end.
Acordes para guitarra
x

Todo acerca de Rise Against