Acordes para guitarra

Indice Rise Against

guitartabs





e:---------------------1--------|
b:---------------------3--------|     (down,up,down,up struming pattern)
g:---------------------2--------|
d:-7--3--0--5--3--2-------------|
a:------------------------------|
e:------------------------------|
    play twice and then......

e:---------------------1--3-----|
b:---------------------3--3-----|
g:---------------------2--2-----|
d:-7--3--0--5--3--2-------------|
a:------------------------------|
e:------------------------------|


ok..well thats the intro to swing life away...may nto be totally accurate especially on 
Acordes para guitarra
x

Todo acerca de Rise Against