Acordes para guitarra

Indice Rise Against

guitartabs






Verse

* play 8 times	# play 16 times

E ------------------------------------------------------------|
B --*-----*-----*-----*-----*-----*-----#---------------------|
G --3-----------6-----------6-----5---------------------------|
D --3-----6-----6-----4-----6-----5-----8---------------------|
A --1-----6-----4-----4-----4-----3-----8---------------------|
E --------4-----------2-----------------6---------------------|


Chorus

^play 16 times	/play 4 times		*play 8 times

E ---------------------------------------------------------------|
B -^----/----/----*----*----^----*----*----^----*----*----*----^-|
G -6-------------------------------------------------------------|
D -6----8----6----4----6----8----4----6----8----6----4----6----8-|
A -4----8----6----4----6----8----4----6----8----6----4----6----8-|
E ------6----4----2----4----6----2----4----6----4----2----4----6-|

And Thats it!

Acordes para guitarra
x

Todo acerca de Rise Against