Acordes para guitarra

Indice Rilo Kiley

guitartabs





This part is missing from the other version and this is played several times in the beginning.

First riff
0:57

------------------------------------------------------------|
---6--8-6--6-----6--8-6--6-----6--8-6--6------6--8-6--10----|
-5--5-----5--5-4--4-----4--4-3--3-----3--3--5--5-----5---5--|
------------------------------------------------------------|
------------------------------------------------------------|
------------------------------------------------------------|

This is also played at the begining too and again at the end

-4-4-4--4--4--6-6-6--6--6--9-9-9--9--9--4~-|
-5-5-5--5--5--7-7-7--7--7--101010-10-10-5~-|
-4-4-4--4--4--6-6-6--6--6--9-9-9--9--9--4~-|
-------------------------------------------|
-------------------------------------------|
Acordes para guitarra
x

Todo acerca de Rilo Kiley