Acordes para guitarra

Indice Riesgo De Contagio

guitartabs

===================================================
* Riesgo de Contagio                              *
* ME MUERO POR DECIRTE QUE TE QUIERO              *
* ---???---                                       *
* ---???--- ()                                    *
============================================BAS====

Intro :

g --------------------|--------------------||
d -1------------------|-1------------------||
a --------2-------1---|---------2------1---||
e --------------------|--------------------||

Riff 1 que acompaņa 
a los gritos del Gordo  :

g -------------------|--------------------|-----------
d -------0-----0--2--|--------0-----0--2--|-------0---
a -0--3-----3--------|--0--3-----3--------|--0--3-----
e -------------------|--------------------|-----------

g ------------||
d -----0--2---||
a --3---------||
e ------------||

Riff  2  :

g --------------------------------||
d -----2-----------2--------------||
a -0------3--2--0-----3--2--0-----||
e --------------------------------||

Verso :

Uca , uca racacacaca
Uca , uca racacacaca
Uca , uca racacacaca
Uca , uca racacacaca


Orden de la cancion :

riff  1   -    pausa
riff  1   -    pausa
riff  1   -    pausa              
riff  1   -    pausa              
riff  1   -    riff   1              
riff  1   -    riff   1              
riff  1   -    pausa              
riff  1   -    pausa              
riff  1   -    pausa             
riff  1   -    pausa      ( mentirosa )              
riff  1   -    riff   1             
riff  1   -    riff   2   (  X   8   )
riff  1   -    riff   1
riff  1   -    pausa      ( asquerosa )
riff  1                   (  X   8   )


agradeciminetos , sasludos , correcciones o
mentadas de madre 
solo escriban

===================================================
Colaboracion de  Luis Alanis



Acordes para guitarra
x

Todo acerca de Riesgo De Contagio