Acordes para guitarra

Indice Riesgo De Contagio

guitartabs

===================================================
| Riesgo de Contagio                              |
| EL FUZZ                                         |
| ---???---                                       |
| ---???--- ()                                    |
============================================TAB====


Ete es el ritmo base para toda la cancion



      A5    G5                D5     C5

|-----------------------------------------------------|
|-----------------------------------------------------|
|---------------------------7-7-7-7-5-5-7-7-7-7-5-5---|
|---7-7-7-7-5-5-7-7-7-7-5-5-7-7-7-7-5-5-7-7-7-7-5-5---|
|---7-7-7-7-5-5-7-7-7-7-5-5-5-5-5-5-3-3-5-5-5-5-3-3---|
|---5-5-5-5-3-3-5-5-5-5-3-3---------------------------|






        D5             C5            A5     G5
|-----------------------------------------------------|
|-----------------------------------------------------|
|---7-7-7-7-7-7-7-7-5-5-5-5-5-5-5-5-------------------|
|---7-7-7-7-7-7-7-7-5-5-5-5-5-5-5-5-7-7-7-5-5-5-5-7---|
|---5-5-5-5-5-5-5-5-3-3-3-3-3-3-3-3-7-7-7-5-5-5-5-7---|
|-----------------------------------5-5-5-3-3-3-3-5---|



|---------------------------------------------|
|---------------------------------------------|
|---------------------------------------------|
|---------7-7-7-7-5-5-------7-7-7-7-5-5-------|
|---------7-7-7-7-5-5-------7-7-7-7-5-5-------|
|---0-3-5-5-5-5-5-3-3-0-3-5-5-5-5-5-3-3-------|


|-----------------------------------------------|
|-----------------------------------------------|
|---------7-7-7-7-5-5-------7-7-7-7-5-5---------|
|---------7-7-7-7-5-5-------7-7-7-7-5-5---------|
|---0-3-5-5-5-5-5-3-3-0-3-5-5-5-5-5-3-3---------|
|-----------------------------------------------|


|------------------------------------------------------------|
|------------------------------------------------------------|
|--------7-7-7-7-7-7-7-7-5-5-5-5-5-5-5-5---------------------|
|--------7-7-7-7-7-7-7-7-5-5-5-5-5-5-5-5---7-7-7-5-5-5-5-7---|
|--------5-5-5-5-5-5-5-5-3-3-3-3-3-3-3-3---7-7-7-5-5-5-5-7---|
|-0-3-5------------------------------------5-5-5-3-3-3-3-5---|





Bueno es que 

dejenme decirles  

De este pinche baile  

Que esta muy curioso   

con todo y con quien bailen  


(AQUI SE ESCUCHAN UN VERSO DEL BATERISTA)



Y ahora 

que ya me observaron

que tan chingon bailo

Traten de Seguirme

No es tan compicado


(AQUI SE ESCUCHAN UN VERSO DEL BATERISTA)




Coro:


Fuzz 
hagamos el Fuzz
hagamos el Fuzz
hagamos el Fuzz  
hagamos el 


Fuzz
hagamos el Fuzz
hagamos el 
 

Fuzz
hagamos el fuzz

hagamos el ffffffuuuuuuzzzzzz


Bueno es que 

que no me entendieron

pinches huevonasos

traten de seguirme

carajo que no oyeron

(AQUI SE ESCUCHAN UN VERSO DEL BATERISTA)



Coro.


              







===================================================
Colaboracion de luis fernado S.



Acordes para guitarra
x

Todo acerca de Riesgo De Contagio