Acordes para guitarra

Indice Riddlin Kids

guitartabs





Riddlin Kids
Faithful
Tabbed by mavrick45

Verse one  X2
G------------------------------------------]
D------------------------------------------]
A---1-1111----------------------6-6666-----]
E-------------1-1111---3-3333--------------]

Verse two  X6
G----------------------------------------------]
D----------------------------------------------]
A---111111------------------------66-55-33-1---]
E--------------111111---333333-----------------]

Verse three
G------------------------------------------------------------]
D--------------------------8---------------------------------]
A---555555-555555-666666-------555555-555555-666666-888888---]
E------------------------------------------------------------]

Chorus  X2
G-----------------------------------------------]
D-----------------------------------------------]
A---11111111---55555555---66666666---33333333---]
E-----------------------------------------------]

Verse one  X2
Verse two  X4
Verse three
Chorus  X2

Bridge  X2
G----------------------------------------------]
D----------------------------------------------]
A---1-1111---5-5555---6-6666---888---666---5---]
E----------------------------------------------]

Verse two   X4

Verse four   X2
G---------------------------------]
D---------------------------------]
A---1-1---------------6-6---6-6---]
E---------1-1---3-3---------------]

Chorus  X2
Verse one  X2

Ending
G-------]
D-------]
A---1---]
Acordes para guitarra
x

Todo acerca de Riddlin Kids