Acordes para guitarra

Indice Riddlin Kids

guitartabs





-------------------------------------------------------------------------------
			    Blind - Riddlin Kids
-------------------------------------------------------------------------------

Tabbed by: Zero is great man
Play with Distortion
Tuning: EADGBe

Intro/Verse:
G|------------------| G|----------------------|
D|------------------| D|----------------------|
A|-3-3-x-x-x--------| A|-3-3-x-x-x-x----------|
E|------------0-0-1-| E|--------------0-0-1-3-|

Pre-Chorus:
G|-----------------------------------|
D|-----------------------------------|
A|-3-3-3-3-------------------3-3-3-3-|
E|----------3-1-x-x-1-x-x-3----------|

Chorus:
G|------------------------------------|
D|------------------------------------|
A|-3-3-3-3----------------------------|
E|----------1-1-1-1--5-5-5-5--3-3-3-3-|


Outro:
G|------------------| 
D|------------------| 
A|-3-3-x-x-x--------| 
Acordes para guitarra
x

Todo acerca de Riddlin Kids