Acordes para guitarra

Indice Reyli

guitartabs

===================================================
| Reyli                                           |
| NOS QUISIMOS                                    |
| Reyli barba                                     |
| ---???--- ()                                    |
============================================TAB====

*Dueto con Franco De Vita.


*Intro:

Dsus4   A   E   A
1. ------------------10----10-9----9-|-------------------10----10-9----9--|
2. -/10-10-10-12-/10----10------10---|----10---10-12-/10----10------10----|
3. ----------------------------------|*-/9----9--------------------------*|
4. ----------------------------------|*----------------------------------*|
5. ----------------------------------|------------------------------------|
6. ----------------------------------|------------------------------------|


-Fill:

        A                               Bm
1. -----------------------------------------------------------------|
2. -----------------------------------------------------------------|
3. -x-x-6-6-x-x-6-6-x-x-6-6-x-x-6-6-x-x-7-7-x-x-7-7-x-x-7-7-x-x-7-7-|
4. -x-x-7-7-x-x-7-7-x-x-7-7-x-x-7-7-x-x-9-9-x-x-9-9-x-x-9-9-x-x-9-9-|
5. -x-x-7-7-x-x-7-7-x-x-7-7-x-x-7-7-x-x-9-9-x-x-9-9-x-x-9-9-x-x-9-9-|
6. -x-x-5-5-x-x-5-5-x-x-5-5-x-x-5-5-x-x-7-7-x-x-7-7-x-x-7-7-x-x-7-7-|

        D                               A
1. -----------------------------------------------------------------|
2. -----------------------------------------------------------------|
3. -x-x-7-7-x-x-7-7-x-x-7-7-x-x-7-7-x-x-6-6-x-x-6-6-x-x-6-6-x-x-6-6-|
4. -x-x-7-7-x-x-7-7-x-x-7-7-x-x-7-7-x-x-7-7-x-x-7-7-x-x-7-7-x-x-7-7-|
5. -x-x-5-5-x-x-5-5-x-x-5-5-x-x-5-5-x-x-7-7-x-x-7-7-x-x-7-7-x-x-7-7-|
6. -------------------------------------5-5-x-x-5-5-x-x-5-5-x-x-5-5-|


*Verso:
(Reyli)

  A                  Bm
Cuando la ví no tuve mas remedio
        D                           A
que acariciar el cielo, uuuh, que cielo,
(Fill)                Bm
cuando llegó no tuve otra salida
        D                         A
y me quedé en su vida bastante tiempo.


*Coro:

-Riff del Coro:

     A             Bm         D          E     A
1. -------------|----7-9-7-|-----10-10-9-------------------|
2. ----10-12-10-|-/7-------|-/10---------12-10----10-12-10-|
3. -/9----------|----------|-------------------/9----------|
4. -------------|----------|-------------------------------|
5. -------------|----------|-------------------------------|
6. -------------|----------|-------------------------------|

     A             Bm         D             E
1. -------------|----7-9-7-|-----10-10--------|
2. ----10-12-10-|-/7-------|-/10-------10\\\--|
3. -/9----------|----------|------------------|
4. -------------|----------|------------------|
5. -------------|----------|------------------|
6. -------------|----------|------------------|

    A            Bm              D                  A
1. ------------|----7-7---7\\-|-----10-10----10\\-|---------------|
2. ---10-10-10-|-/7-----7-----|-/10-------10------|----10-10---10-|
3. -9----------|--------------|-------------------|-/9-------9----|
4. ------------|--------------|-------------------|---------------|
5. ------------|--------------|-------------------|---------------|
6.-------------|--------------|-------------------|---------------|


          A               Bm
Y nos quisimos, cuánto quisimos,
         D              E                  A
y el universo cada día nos quedaba mas pequeño,
          A               Bm
y nos quisimos, cuánto quisimos,
          D               E                   A
pero no cabe duda que el amor no pueder ser eterno, no, no, noo,
Bm
no, no, no, ro, noo,
D
no, no, no, ro, noo,
A
no, no, no, ro, no.


*Verso:
(Franco De Vita)

(Fill)

  A                   Bm
Cuando se fue yo me quedé en silencio
     D                   A
alucinando cuentos y reflejos,
                           Bm
Dónde andará? No encuentro la salida,
          D                      A
tú sigues en mi vida, quién lo diría.


*Coro:

          A               Bm
Y nos quisimos, cuánto quisimos,
         D              E                  A
y el universo cada día nos quedaba mas pequeño,
          A               Bm
y nos quisimos, cuánto quisimos,
          D               E    D   E         A
pero no cabe duda que el amor necesita libertad,
 D       E
viene y va.


-Con Gtrra. Acústica solamente:

          A               Bm
Y nos quisimos, cuánto quisimos,
         D              E                  A
y el universo cada día nos quedaba mas pequeño,
          A               Bm
y nos quisimos, cuánto quisimos,
          D               E                   A
pero no cabe duda que el amor no pueder ser eterno.


-Con Gtrra. Electríca, Riff y acompañamiento:


          A               Bm
Y nos quisimos, cuánto quisimos,
         D              E                  A
y el universo cada día nos quedaba mas pequeño,
          A               Bm
y nos quisimos, cuánto quisimos,
          D               E                   A
pero no cabe duda que el amor no pueder ser eterno, no, no, noo,
Bm
no, no, no, no, noo,
D
no, no, no, no, noo,
A
no, no, no, no, no...

===================================================
Colaboracion de German Ahumada



Acordes para guitarra
x

Todo acerca de Reyli