Acordes para guitarra

Indice Reuben

guitartabs





ARTIST: Reuben
SONG: A Kick In The Mouth
ALBUM: Very Fast Very Dangerous
TUNING: Drop D
TABBED BY: Kryptonite22
NOTES: Just listen and play. You know the drill.

DRUMS AND BASS INTRO

GUITAR COMES IN
e|------------------------------------|
B|------------------------------------|
G|------7-------7---------------------|
D|--00--7--000--7--0-333h55p3h5p3-----|
A|--00--5--000--5--0-333h55p3h5p3-----|
D|--00-----000-----0-333h55p3h5p3-----|

VERSE
e|---------------------------------------------------|
B|---------------------------------------------------|
G|---------------------------------------------------|
D|--8-7-5-10-8-7-5-5-7-5-8----8-7-5-10-8-10-5-5-7-5--|
A|---------------------------------------------------|
D|---------------------------------------------------|

VERSE (CONT)
e|---------------------------------------------------|
B|---------------------------------------------------|
G|--8-7-5-10-8-7-5-5-7-5-8----8-7-5-10-8-10-5-5-7-5--|
D|--8-7-5-10-8-7-5-5-7-5-8----8-7-5-10-8-10-5-5-7-5--|
A|--6-5-3-8--6-5-3-3-5-3-6----6-5-3-8--6-8--3-3-5-3--|
D|---------------------------------------------------|

PRE-CHORUS
e|---------------------------------|
B|---------------------------------|
G|---------------------------------|
D|--777777777-999-111111111-000----|
A|--777777777-999-111111111-000----|
D|--777777777-999-111111111-000----|

INTRO (DOUBLES AS CHORUS)

Those are all the parts you need ot know. Just listen to the song for order and timing.
Acordes para guitarra
x

Todo acerca de Reuben