Acordes para guitarra

Indice Reuben

guitartabs






Freddy Kreuger By Reuben
From the album Racecar is Racecar Backwards
Bass Tab
Tabbed by Bikenutter

Tuned Drop Db - Tune 1 semitone lower across all four strings and then drop e string 
tone

Legend

\  = slide
*  = let ring
b  = bend
br = bend and release
h  = hammer on
p  = pull off
x  = heavily muted note
PM = Palm Mute
1 (x10) = Play note 1 10 times

Intro 1

With the drum beat

Gb------------------------------------|
Db------------------------------------|
Ab------------------------------------|
Db----5-3-5-3-5-3-5/////--------------|


Intro 2 + Verse

With distortion

Gb-------------------------------------------------------------------------|
Db-------------------------------------------------------------------------|
Ab--------------------------------------------------------------2---4------|
Db----5-5-5-5-5-5-5-5-5-5-5-5-5-5-3-3-3-3-3-3-3-3-3-3-3-3-3-3-3---3---3----|


Gb-------------------------------------------------------------------------|
Db-------------------------------------------------------------------------|
Ab------------------------------------------------------------7------------|
Db----5-5-5-5-5-5-5-5-5-5-5-5-5-5-3-3-3-3-3-3-3-3-3-3-3-3-3-3---9----------|


Chorus (no distortion i think)

Gb--------------------------------------|
Db--------------------------------------|
Ab----5-(x16)--2-2-2--3 (x16)--1-1-1----|
Db--------------------------------------|

Gb--------------------------------------|
Db--------------------------------------|
Ab----4-(x16)--1-1-1--2-x-x-2-x-x-2*----|
Db--------------------------------------|

Verse again a couple of times


Verse variation

Gb-----------------------------------------------------------------------|
Db-----------------------------------------------------------------------|
Ab-----------------------------------------------------------------------|
Db----5-5-5-5-5-5-5-5-5-5-5-5-5-5-3-3-3-3-3-3-3-3-3-3-3-3-3-3------------|

Chorus again

Fill

       "My name is Freddy Kreuger, i got the Elm Street Blues..."

Gb-------------------------------------------------------------------------|
Db-------------------------------------------------------------------------|
Ab-------5*-----------2*------3*-----------------------------------5-3-2---|
Db-------------------------------------------------------------------------|


     "...I got an hand like a knife rack, and i die in every film..."

Gb--------------------------------------------------------------|
Db--------------------------------------------------------------|
Ab-------5*----------2*----------3*-----------------------------|
Db--------------------------------------------------------------|


Then repeat chorus


Acordes para guitarra
x

Todo acerca de Reuben