Acordes para guitarra

Indice Reno

guitartabs

=====================================================================
| ARTISTA: Los Reno                                                 |
| CANCION: Siempre te amaré                                         |
| AUTOR:   Lennon- Mccartney                                        |
| ALBUM:   -?-                                                      |
+------------------------------------------------------TAB-reno0013-+
| TRANS:   Rodolfo                                                  |
=====================================================================

BUENO AQUI ESTA EL TAB DE EL GRUPO LOS RENO(SIEMPRE TE AMARE)
YO CREO QUE ESTA BIEN.
Dedicada especial mente para Margarita.


INTRODUCCION:


E|---------------------------------|
B|-----4--------4--------4------4--|ACONTINUACIÓN SOL#MAYOR
G|----3--------3--------6------6---|Y LUEGO MENOR
D|---5--------5--------5------5----|
A|-6---------6--------6------6-----|
E|---------------------------------|


E|---#-----------|ESTO SE TOCA
B|---#--4--------|2 VECES Y DESPUES LOS
G|---#-----------|SIGUIENTES ACORDES
D|---#----5------|
A|---#-----6-----|SOL-,FA#-,FA-,LA#-.YSE REPITE.
E|---#-----------|

Re#+                Sol-
Vuelve a mi dulce bien
       Sol#+             Sol#-
que bien sabes que te espero
      Re#+  Sol-  Fa#- Fa- La#+
y yo nunca nunca jamas te olvidare.

Re#+
Al vesar siento yo

que te entrego toda el alma

porque es tuya y tuya sera hasta el final.

E|-------------|
B|4-4----------|
G|----3--------|
D|------5------|
A|-------------|
E|-------------|


E|---------------|Esto ba en forma
B|------4--------|de rasgueo 4 veces.
G|-----6---------|
D|----5----------|
A|---6-----------|
E|---------------|

Sol#+                    Re#+
TU HERMOSURA ES COMO UNA ROSA QUE
     Sol-  Fa#-  Fa-  Fa7
ME HACE SENTIR LOCAMENTE DE PACION
     La#+,Si+,La#+
MI BIEN.


VUELVE A MI DULCE AMOR QUE VIENSABES QUE

TE ESPERO PUES YO NUNCA NUNCA JAMES TE OLVIDARE.

SOLO:


E|--------------------------------------------------|
B|--------4-----------------------------------------|
G|-------3---5-3-----------------5/6--5-3-----------|
D|---5-6----------6-5-3------5-8-----------6-5-6----|
A|-----------------------6-7------------------------|
E|--------------------------------------------------|


E|---------------------------------------|depues se tocan
B|-----------------------------------8---|los siguientes
G|-1-3-1-3-1-3-1/4-6-4-6-4-6-4-------8---|acordes.
D|-----------------------------------8---|
A|-------------------------------6-------|
E|---------------------------------------|

   SOL-,FA#MAYOR,FA-,LA#MAYOR
E|-----------------------------------------|
B|--------------------------------4-4------|
G|------------------------------------3----|
D|--------------------------------------5--|
A|-----------------------------------------|
E|-----------------------------------------|

TU HERMOSURA ES COMO UNA ROSA QUE ME HACE

SENTIR LOCA MENTE DE PASION MI BIEN.

VUELVE AMI DULCE AMOR QUE BIEN SABES

QUE TE ESPERO PUES YO SIEMPRE PUES YO

SIEMPRE SIEMPRE A TI TE AMARE.



  Sol#+     Sol#-                     Re#+
SIEMPRE TE AMAREEEEEEEEEEEEEEEEEEEEEEE.


Hay la tienes peder para que te la aprendas!!!


1092991898

Acordes para guitarra
x

Todo acerca de Reno