Acordes para guitarra

Indice Reincidentes

guitartabs

===================================================
| Reincidentes                                    |
| SAL DE TUS TRINCHERAS                           |
| ---???---                                       |
| ---???--- ()                                    |
===================================================


aki estamos kon este temasø de reincidentes espero les guste..

arpegio guitarra acustica

Intro  D-F*-C-G-A# (X2)  (el F* es en el 8vo espacio de la 5ta cuerda)


(I)
D            C			  G   	     A#
Sientes buscando en tu interior un vacio sin poder llenar

D            C			  G   	     A#
piensas k' todo no esta mal atrapado en tu debilidad

D            C			  G   	     A#
preso, preso de tu propio ser, la conciencia es fria y cruel 

D            C			  G   	     A#
nunca sabes bien como actuar la  dudas es compañera  fiel

(II)
F*	   D		A	    A#
cuando un día dejes de fingir k' vas bien 

F*	   D		A	    A#
cuando un día dejes de mentir sin saber

C			A#
donde me lleva  esta  oscuridad

C			A#
tantas noches solo en la  ciudad, 

sal de tus trincheras 

(III)
 D-F*-C-G-A# (X2) 
sal de tus trincheras X2

D            C			  G   	     A#
Basta no mires paso atras hay muchas vias por  recorrer

D            C			  G   	     A#
buscas refugio seguro que habrá dentro de ti 

D            C			  G   	     A#
sexo, sexo mi cuerpo pide mas,tantas barreras que  hay que derribar

D            C			  G   	     A#
contra ataca la mediocridad son maneras de sobrevivir 

(II)  
cuando un dia....
donde me lleva  esta  oscuridad
tantas noches solo en la  ciudad, 

D-F*-C-G-A# (X2) 
sal de tus trincheras 
sal de tus trincheras 

(Solo)
|------------------------------------------------------------------------------|
|------------------------------------------------------------------------------|
|---------------------------------3-2-0--3-2-0---------------------------------|
|--10~-10~-10~-10~---8-7-8-7---3----------------3/10~-10~-10~-10~---8-7-8-7---3|
|------------------------------------------------------------------------------|
|------------------------------------------------------------------------------|

|------------------------------------------------------------------------------|
|--6-5-8-5-6-5-8-5-6-5-6-5--------6-5-----6-5-8-5-6-5-8-5-6-5-6-5----6-5-------|
|--------------------------5-0--------5-0------------------------5-0------5-0--|
|------------------------------------------------------------------------------|
|------------------------------------------------------------------------------|
|------------------------------------------------------------------------------|

D-F*-C-G-A# (X5) 
sal de tus trincheras x5


diskulpas por la letra sies k' esta incorrekta, lo que pasa es ke la saque de un 
kassett que esta bien carreteado...sorry.. 
DeDicaDo a Todøs los Fanaticos De este excelente grupo en latinoamerica, saludos 
de aqui desde Chile, esto esta dedicado a un gran amigo, pa' ti Lenny, algun día
nos volveremos a encontrar..el pepe. aguannnnnnnnnttttttttteeeeeeeeeeee..... 

Dudas, Komentariøs, y/o sugerenciä§

===================================================
Colaboracion de phobos



Acordes para guitarra
x

Todo acerca de Reincidentes