Acordes para guitarra

Indice Reincidentes

guitartabs

===================================================
* Reincidentes                                    *
* CAMELA 3                                        *
* ---???---                                       *
* ---???--- ()                                    *
============================================TAB====

+ Tabulados de made in spain!                   +
+++++++++++++++++++++++++++++++++++++++++++++++++

Al lío...

 Intro (las notas sueltas son de bajo)

B5
---------------|--------|------------------------------|
---------------|--------|------------------------------|
---------------|----%---|------------------------------|
9-9-9-9--------|--------|-9---------9---------9-9-9-9--|
9-9-9-9--------|--------|-9---------9---------9-9-9-9--|
7-7-7-7--4-5-6-|--------|-7--4-5-6--7--4-5-6--7-7-7-7--|


E5                                                       C#5  B5  A5    
-------------------------------------------------------------------------|
-------------------------------------------------------------------------|
-----------------------------9-9-----------9-9-9-9-9-9-9-6-6--4---2-2----|
-----------------------------9-9-----------9-9-9-9-9-9-9-6-6--4---2-2----|
7-7-7-7-7-7-7-7-7-7-7-7-7-7------7-7-7-7-7-7-7-7-7-7-7-7-4-4--2---0-0----|
-------------------------------------------------------------------------|
Pongo la radio el televisor      día a día las noticias de la sociedad

C#5  B5   A5
------------------|
------------------|
6----4----9--9----|
6----4----9--9----|
4----2----7--7----|
------------------|
la suciedad.

E5                                                       C#5  B5  A5    
-------------------------------------------------------------------------|
-------------------------------------------------------------------------|
------------------------------9------------9-9-9-9-9-9-9-6-6--4---2-2----|
------------------------------9------------9-9-9-9-9-9-9-6-6--4---2-2----|
7-7-7-7-7-7-7-7-7-7-7-7-7-7-9----7-7-7-7-7-7-7-7-7-7-7-7-4-4--2---0-0----|
-------------------------------------------------------------------------|
Kome el koko muy pokito a poko   parece una telenovelaaa la información

C#5  B5   A5
------------------|
------------------|
6----4----9--9----|
6----4----9--9----|
4----2----7--7----|
------------------|
Desinformación.

Todo igual para las siguientes estrofas.

Estribillo:

A5     B5 E5
Kamela 3, la informaci¢n m s veraz

A5     B5 E5
Kamela 3, verás ké bien te miento yo

A5     B5 E5                      G#5   A5  B5
Kamela 3, verás ké bien te timo yo



	Soy muy perezoso komo para ponerme a kopiar el solo de
   guitarra, os doy los akordes y sakadlo vosotros, es muy fácil.
   Si alguien no lo saka pos manda un maily se lo mando (pero
   prefiero ahorrarme el trabajo, así ke si no lo pedís pos no lo hago)

Los akordes del "solo"

E5  A5  B5


	Ahora viene la parte ke más mola de toda la kanción, kon
   los koros ke le meten... Los akordes son iguales en toda esta
   parte, solo varía la forma de tokarlos, pero eskuchad la cinta
   y veréis kómo es.

E5
Ya les vale al personal
B5
Distorsionando la verdad
C#5           D5
La mentira es su moralidad

E5
Yo no sé de ké os kejáis
B5
Tenéis celos del poder
C#5                  D5
Y os está korroyendo vuestra envidia

E5
Ya os kitaron vuestra idea
B5
No tenéis nada ke ofrecer (akí doblan la voz de puta madre)
C#5                    D5
Y es ke la mierda está ya inventada.

===================================================



Acordes para guitarra
x

Todo acerca de Reincidentes