Acordes para guitarra

Indice Reik

guitartabs

=====================================================================
| ARTISTA: Reik                                                     |
| CANCION: Vuelve                                                   |
| AUTOR:   Jesus Navarro/julio Ramirez                              |
| ALBUM:   Reik (2005)                                              |
+------------------------------------------------------TAB-reik0145-+
| TRANS:   Ivan Medina                                              |
=====================================================================

Trate de sacar lo mas bien ke pude los arrepiegos de esta super padre canción, 
aunque fue un poco dificil tratar de sacar todas la notas exactas
ya ke muchas apenas se oyen y aparte tambien hay un bajo.
Esta rola va para mi amor, Ale TQM
...................................................................................

Intro

e|---------------------------------------------------------------------------------
B|---0-----3--1-------0h1-0---0------------3--5--1------0-0h1-0---0----------------
G|---0-----0--0-------------2-----------0--0--0--0----2---------2----2/4-5-4-2p0---
D|------0-----2----------------------0-----------2---------------------------------
A|---------------------------------------------------------------------------------
E|---3-----------3-3-------------3-----------------3-------------------------------

Verso (x - silenciar con la palma de la mano)

        G                    Bm                Em           Am7         D  C
e|------x-----------|--------x----------|------x---------|--------|----2--2h3------
B|--0---x--0-------0|--3-----x--3-----3-|--0---x--0------|-----1--|---3--3------1--
G|--0---x--0-----0--|--4---4-x--4---4---|--0---x--0-----0|----0---|--2--2------0---
D|--0---x--0---0----|----4---x----4-----|--2---x--2---2--|---2----|-0---------2----
A|----2-x----2------|--2-----x--2-------|----2-x----2----|--0-----|----------3-----
E|--3---x--3--------|--------x----------|--0---x--0------|--------|----------------

 Sigo buscando el porque   te fuiste de        aqui dejando un    abismo     entre tu y yo


           C                    G                  Am                  D
e|----------3--------|------------1--------|----------0-------|---------2----------
B|--------1---1------|----------0---0------|--------1---1-----|-------3---3--------
G|------0-------0----|--------0------------|------2-------2---|-----2--------------
D|----2-----------2--|------0--------------|----2-------------|---0----------------
A|--3----------------|----2----------------|--0---------------|--------------------
E|-------------------|--3------------------|------------------|--------------------

 No te he podido olvidar      y no se si      a ti te pase          lo mismo

          G                  Bm                 Em            Am7    D       C
e|------------------|----------2-------|------0--------0---|------|----2-|-----0h3-
B|--0----0---0---0--|--3---3-----3---3-|-----0---0-------0-|----1-|---3--|----1----
G|--0--0-0---0---0--|--4---4-4---4---4-|----0----0-0---0-0-|---0--|--2---|---0-----
D|----0----0--------|----4-4-4-----4-4-|---2-------0-2-2-2-|--2---|-0----|--2------
A|-------2-------2--|--2-----2---2-----|--2-----2----2---2-|-0----|------|-3-------
E|--3----------3----|------------------|-0-----------0-----|------|------|---------

    Toda mi vida    cambio me falta tu amor,      siento ke pierdo   la     razón

           C                    G                   Am                  D
e|----------3--------|------------1---------|----------0-------|---------2---------
B|--------1----------|----------0---0-------|--------1---1-----|-------3---3-------
G|------0-------0----|--------0-------------|------2-------2---|-----2-------------
D|----2-----------2--|------0---------0-----|----2-------------|---0---------------
A|--3----------------|----2-----------------|--0---------------|-------------------
E|-------------------|--3-------------------|------------------|-------------------

 Y hoy te he vuelto a llorar         porque sin ti no aprendo     a viviiir

Coro

          C                     D                 G
e|--3-----3---3-----|------2--2--------2--|-------3-----3-------
B|----1-----1-------|---3-----3------3----|---------0-----------
G|----0-----0---0---|---2--2--2----2------|-----------0---------
D|------2---------2-|-0-------0--0--------|-----0---------------
A|--3-------3-------|---------------------|---2-----------------
E|------------------|---------------------|-3-------------------
    Vueeeeelve       kiero sentirme me   en  tus brazos


        Em             Am7                  C          D             G
e|------------------------------|----------3----------------2--------------1-------
B|----------------------1-------|--------1---1------------3---------------0----0---
G|--0---x-------0-----0---------|------0-------0---0----2-------2--------0---0-----
D|--2---x-----2-----2-----2---2-|----2-----------2----0-------0--------0-----------
A|----2-x---2-----0---------0---|--3---------------------------------2-------------
E|--0---x-0---------------------|----------------------------------3---------------

  Kiero besarte los labios           por  siempre    kedarme   a   tu  lado

     C             D            G               Em
  Vueeeelve sabes ke tu me haces falta la espera es cruel y lastiiimaa

   C     D        G      (parte del intro)
  Vuelvee llena de amor mi vida


Intro

e|---------------------------------------------------------------------------------
B|---0-----3--1-------0h1-0---0------------3--5--1------0-0h1-0---0----------------
G|---0-----0--0-------------2-----------0--0--0--0----2---------2----2/4-5-4-2p0---
D|------0-----2----------------------0-----------2---------------------------------
A|---------------------------------------------------------------------------------
E|---3-----------3-3-------------3-----------------3-------------------------------

Verso

        G                    Bm                Em           Am7         D  C
e|------x-----------|--------x----------|------x---------|--------|----2--2h3------
B|--0---x--0-------0|--3-----x--3-----3-|--0---x--0------|-----1--|---3--3------1--
G|--0---x--0-----0--|--4---4-x--4---4---|--0---x--0-----0|----0---|--2--2------0---
D|--0---x--0---0----|----4---x----4-----|--2---x--2---2--|---2----|-0---------2----
A|----2-x----2------|--2-----x--2-------|----2-x----2----|--0-----|----------3-----
E|--3---x--3--------|--------x----------|--0---x--0------|--------|----------------

     Como sacarme este amor que ahora es dolor tal vez olvidaaarte  seaaa   mejor
           C                    G                  Am                  D
e|----------3--------|------------1--------|----------0-------|---------2----------
B|--------1---1------|----------0---0------|--------1---1-----|-------3---3--------
G|------0-------0----|--------0------------|------2-------2---|-----2--------------
D|----2--------------|------0--------------|----2-------------|---0----------------
A|--3----------------|----2----------------|--0---------------|--------------------
E|-------------------|--3------------------|------------------|--------------------

  Pero no puedo engañar a este  corazón          que   espeeera   por tiii


Coro

          C                     D                 G
e|--3-----3---3-----|------2--2--------2--|-------3-----3-------
B|----1-----1-------|---3-----3------3----|---------0-----------
G|----0-----0---0---|---2--2--2----2------|-----------0---------
D|------2---------2-|-0-------0--0--------|-----0---------------
A|--3-------3-------|---------------------|---2-----------------
E|------------------|---------------------|-3-------------------
    Vueeeeelve       kiero sentirme me   en  tus brazos


        Em             Am7                  C          D             G
e|------------------------------|----------3----------------2--------------1-------
B|----------------------1-------|--------1---1------------3---------------0----0---
G|--0---x-------0-----0---------|------0-------0---0----2-------2--------0---0-----
D|--2---x-----2-----2-----2---2-|----2-----------2----0-------0--------0-----------
A|----2-x---2-----0---------0---|--3---------------------------------2-------------
E|--0---x-0---------------------|----------------------------------3---------------

  Kiero besarte los labios           por  siempre    kedarme   a   tu  lado

     C             D            G               Em
  Vueeeelve sabes ke tu me haces falta la espera es cruel y lastiiimaa

   C     D        G      C
  Vuelvee llena de amor mi vida

   C     D       G           (parte del outro)
  Vuelvee llena de amoooor...mi vida

Outro

e|--------------------------------------------------3------------------------------
B|---0-----3--1------0-0h1-0---0-------------------0-------------------------------
G|---0-----0--0----2---------2----2/4-5-4-2p0-----0--------------------------------
D|------0-----2----------------------------------0---------------------------------
A|----------------------------------------------2----------------------------------
E|---3-----------------------------------------3-----------------------------------


....................................................................................

por ahorita es todo y lo mejor ke he podido sacar, cualquier duda, sugerencia
mentada o lo ke sea ahi tienen mi correo

-Ivan


1124441433

Acordes para guitarra
x

Todo acerca de Reik