Acordes para guitarra

Indice Reik

guitartabs

=====================================================================
| ARTISTA: Reik                                                     |
| CANCION: Vuelve                                                   |
| AUTOR:   Reik (?)                                                 |
| ALBUM:   -?-                                                      |
+------------------------------------------------------TAB-reik0143-+
| TRANS:   Jorge Enrique Reyes Gutierrez                            |
=====================================================================

Q ondas a todos
aki otra vez pero con esta gran cancion de reik, vuelve
ya vi los acordes de las otras tablaturas y se oyen bien asi que
nomas falta el intro, el intermedio y el final de la rola y aqui se
los dejo.
se oye 100 %bien dudo mucho q tenga errores pero si los tiene pues ya
saben a donde escribir, se les agradecera sus correcciones

ok, va asi


intro:


E ---3----------------------33------------------------------
A ----------------------------------------------------------
D ------0-------------2-------------------------------------
G ------------0-------------------4/5-4--2-2/4--------------
B ------------3-------1-------------------------------------
e ----------------------------------------------------------


E ---3-----------------3-------------------------------------
A ----------------------------------------------------------
D -----------------2-----------------------------0----------
G ------0----0--0---------2-4-4/5-4-2-4--2/4-2/0------------
B -------0---3--5--1----------------------------------------
e ----------------------------------------------------------


primer coro:
llena de amor... mi vida\  minuto 1:40

E ---3----------------------33------------------------------
A ----------------------------------------------------------
D ------0-------------2-------------------------------------
G ------------0-------------------4/5-4--2-2/4--------------
B ------------3-------1-------------------------------------
e ----------------------------------------------------------


E ---3-----------------3------------------------------------
A ----------------------------------------------------------
D -----------------2-----------------------------0----------
G ------0----0--0---------2-4-4/5-4-2-4--2/4-2/0------------
B -------0---3--5--1----------------------------------------
e ----------------------------------------------------------


y al final:
vuelve, llena de amor mi vida

E ---3---------------------------------------------3-------
A -------------------------------------------------2-------
D -----0---------2-----------------------------0---0-------
G ----------0-----------2-4-4/5-4-2-4--2/4-2/0-----0-------
B ----------3----1---------------------------------3-------
e -------------------------------------------------3-------

y fin, con esto termina esta gran cancion q para mi gusto es la mejor
del disco.........

liliana , esta cancion  va por ti, con todo mi amor
saludos a mis  amigos de musica.....(beto,martin, blanka, brenda y nancy, y a todos los demas)
bueno ya saben, dudas , rayadas,felicitaciones correos bomba, cadenas de maldicion
cadenas de la mala suerte, ahi ta el correo jajaja
practiken mucho :)


1117187621

Acordes para guitarra
x

Todo acerca de Reik