Acordes para guitarra

Indice Reef

guitartabs





Artist: Reef
Track: Something to say.  From the Album Rides
You work out the rhythm. 

Verse
G:-------------------------------------------------¦
A:-------------------------------------------------¦
D:-------------5-----------------------------------¦
E:--5------------------------------------------5---¦

G:-------------------------------------------------¦
A:-------------------------------------------------¦
D:------------5------------------------------------¦
E:--5-----------------------------------------5----¦


Chorus :
G:-------------------------------------------------¦
A:-------------------------------------------------¦
D:-------------------------------------------------¦  x 2
E:--1--------------------3-------------------------¦

G:-------------------------------------------------¦
A:-------------------------------------------------¦
D:---------------5---------------------------------¦
E:2---------------------------------------5--------¦

Back to verse

Well there you go. 
The tabs sound all right though
Any mistakes give me a shout

Rick
Acordes para guitarra
x

Todo acerca de Reef