Acordes para guitarra

Indice Razones Concientes

guitartabs

=====================================================================
| ARTISTA: Razones Concientes                                       |
| CANCION: Vuelta al barrio                                         |
| AUTOR:   Razones concientes                                       |
| ALBUM:   Industria argentina (2004)                               |
+------------------------------------------------------TAB-rcon0011-+
| TRANS:   Lobo79                                                   |
=====================================================================

                                           X4
e||----------------------------------------||-----------|
B||----------------------------------------||-----------|
G||----------------------------------------||-----------|
D||-9--7-10--9---12/10--9/10--9--7-10--9---||-----------|
A||-7--5--8--7---10/-8--7/-8--7--5--8--7---||--7--8--9--|
E||----------------------------------------||--5--6--7--|


E5        C5               B5           D5     4|--5P4----|
Buenos recuerdos que otros tiempos me dejaron, 5|------7--|
E5         C5          G5          D5    D5-D#5-E5
noches de amigos bajo una misma ilusión.
          C5          B5           D5       4|--5P4----|
Fuertes zapadas, el pogueo y los picados... 5|------7--|
E5        C5            G5            D5
Largas timbeadas y el escabio en el tablón.


C5          G5  D5              4|--------4/(5)--(5)~~--|
Aprendí con vos nunca te olvidé 5|--7--7----------------|
C5             G5             D5    E5
como el barrio que nos vió crecer.
C5          G5  D5             4|--9-----7-----5-----4--|
Me crié con vos desde la niñez 5|----777---777---777----|
C5           G5             D5
y el destino nos juntó otra vez.

                                                   x2
||-------------------------------------------------||
||-------------------------------------------------||
||-------------------------------------------------||
||-9--7-10--9---12/10--9/10--9--7-10--9------------||
||-7--5--8--7---10/-8--7/-8--7--5--8--7---7--8--9--||
||----------------------------------------5--6--7--||


Distintos rumbos pero en un mismo camino,
no existe fuerza que nos pueda doblegar.
Estar a solas es común en tiempos grises,
no estarán solos los que creen en la amistad.


Aprendí con vos nunca te olvidé
como el barrio que nos vió crecer.
Me crié con vos desde la niñez
y el destino nos juntó otra vez.


Debe ser por siempre...
Debe ser como ayer...
Debe ser por siempre...
Debe ser como ayer...
|--------------------------------------------------|
|--------------------------------------------------|
|--------------------------------------------------|
|--9-9---9---10-10--9------9-9---9-------------10--|
|--7-7---7----8--8--7------7-7---7----8--7---7--8--|
|-------------------------------------6--5-6-------|

SOLO
|--------------------------------------------------------10-----------------|
|-11b----11b-r-8--------------------------------------10b--10r-10----8--7~~-|
|----------------9~~~---9-----------9-11-12p11p9--9-------------------------|
|-------------------------9~~9~~--9-------------12--------------------------|
|---------------------------------------------------------------------------|
|---------------------------------------------------------------------------|

|----------------------------------------------------------------------------
|-10p8p7---8p7--10p8p7---8p7-----------15b---13-12----12h13h15---12p13-------
|--------9-------------9-----9p7-9-------------------------------------14----
|----------------------------------------------------------------------------
|----------------------------------------------------------------------------
|----------------------------------------------------------------------------
bueno, asi empiesa... a ver quien se anima a terminarlo/corregirlo


Aprendí con vos nunca te olvidé
como el barrio que nos vió crecer.
Me crié con vos desde la niñez
y el destino nos juntó otra vez.


ACORDES:
    E5   C5   B5   D5   G5  D#5
e|------------------------------|
B|------------------------------|
G|------------------------------|
D|--9----5----4----7---------8--|
A|--7----3----2----5----5----6--|
E|----------------------3-------|


1115285737

Acordes para guitarra
x

Todo acerca de Razones Concientes