Acordes para guitarra

Indice Ratones

guitartabs

=====================================================================
| ARTISTA: los Ratones Paranoicos                                   |
| CANCION: Ya morí                                                  |
| AUTOR:   los Ratones Paranoicos (?)                               |
| ALBUM:   -?-                                                      |
+------------------------------------------------------TAB-rpar0342-+
| TRANS:   Sebastian                                                |
=====================================================================

B/DD B/DDD B/DD B/DDD
           D            G             A
E-2---  E--------- E----------- E-------------
B-3---  B--------- B----------- B-------------
G-2---  G--------- G----------- G-------------
D----   D-7-9-7-9- D----------- D-------------
A----   A-5---5--- A-5-7-5-7--- A-7-9-7-9-----
E----   E--------- E-3---3----- E-5---5-------

     D
Yo quiero ser un heroe
     G
Que toda la gente se crea      E-3--3--3--3-
     D                  A      B-3--3--3--3-
Que tomo solo vino del peor
                               E-5-3-5---5-3-7b--
    D                          B-5-3-5-5-5-3-7b--
Que soy un Bolchevique         G-------5---------
    G
que no me importa el dinero
   D                       A
Y que me gusya mucho el rock&Roll

Estibillo:

  D
Ya morí                     E-3-3--5-3-2-0--------------
  G                         G-3-3--5-3-2-0--------------
Ya morí de espaldas nena
  D
Ya morí
  G
Ya morí nadie se entera

Parte 1

No trates de encontrarme
No salgo ya a ninguna parte
Me gusta caminar por mi manción

Toda esa pobre gente
los que se mueren de repente
espero que ahora estes mucho mejor

SOLO

E--------------------------------------------------
B-11b-11b--9-11-11--9-------9h11-11-9h11-11-9h11-11
G-----------------9----9-11-------------------------
D--------------------------------------------------
A--------------------------------------------------
E--------------------------------------------------

E-------------------------------------------------------
B-11b-11-9---------------------9----9-10h12-9--10-12-10-
G----------11-9-----------9-11---11---------------------
D-----------------11-9-11-------------------------------
A-------------------------------------------------------
E-------------------------------------------------------

E-13------------------------------------------------------------------
B----10-12-10----------------12b---------------10---------------------
G-------------12b-10-12b-12b----12b-10-12b-12b----12b-12b-10-12b-10---
D-------------------------------------------------------------------12
A---------------------------------------------------------------------
E---------------------------------------------------------------------


1120098756

Acordes para guitarra
x

Todo acerca de Ratones