Acordes para guitarra

Indice Rata Blanca

guitartabs

===================================================
| Rata Blanca                                     |
| POR QUE ES TAN DIFICIL AMAR                     |
| Walter Giardino                                 |
| ---???--- ()                                    |
============================================TAB====

Bueno esta es una cancion que solicitaron a mi correo
y bueno la presente se las dedico a dos grandes amigos
a Jose Morataya y Claudia Barrios que los quiero mucho..


Bueno la cancion va a finada a un tono 4:40 Tmp y bueno
espero que la disfruten y peticiones a mi correo hasta
pronto...

Slowler = 50 bmp
 4/4

 Gtr.1 (elec)
 full                 1/2
|-------------------|-------------------------|-------------------------|
|-----------------7-|-(7)pb-r7----------------|--------------8-7h8p7----|
|-9b------6-7-------|----------6----6-7-/9----|-----6h7-/9-----------9--|
|-------9-----------|-------------------------|-------------------------|
|-------------------|-------------------------|-------------------------|
|-------------------|-------------------------|-------------------------|
  mf


  						 .  full    ~~~~~~         ~~~~~~~~
|-------------------------|-----------------------------|--------------------------|
|-------------------------|-----------------------------|--------------------------|
|-/9-\-(7)------6---7-----|-----11-p-8------/8-9-11-12b-|---12-----11p9---/12------|
|-----------------9-------|------------9----------------|--------------------------|
|-------------------------|-----------------------------|--------------------------|
|-------------------------|-----------------------------|--------------------------|



		   1/2	   ~~~~~~        ~~~~~~~~
|----------------------|-------------------------|---------------------------|
|----------------------|-------------------------|---------------------------|
|-9-p-6------6-7-9-11b-|---11-----9p7---/11------|-----7-p-4------4-6-7-7/11-|
|-------7--------------|-------------------------|-----------5---------------|
|----------------------|-------------------------|---------------------------|
|----------------------|-------------------------|---------------------------|



   ~~~~~ ~~~~      ~~~~~~ full                full  full    full    full     ~~~~~~~~~
|-----------------------------|---------------7-----9-----|-10------12----------------||
|-----------------------------|---------------10b---12b---|-13b-----15b--15-14--------||
|-(11)---9----7p6-/9------9b--|--r(9)-p7-\----------------|---------------------------||
|-----------------------------|---------------------------|---------------------------||
|-----------------------------|---------------------------|---------------------------||
|-----------------------------|---------------------------|---------------------------||
					     w/dist.


                       ~~~~~~                ~~~~         ~~~~
|-------14--11--------------------------|-------------------------------|
|---------------12----------------10p12-|-------------------------------|
|-------------------/14------(x)--------|/14\12---11-----12-------------|
|---------------------------------------|------------14-------12--14p12-|
|---------------------------------------|-------------------------------|
|---------------------------------------|-------------------------------|



  ~~~~~~              ~~~~~~                 ~~~~        ~~~~
|---------12--9-------------------------|---------------------------------|
|--------x-------10----------------10p8-|---------------------------------|
|--------x-----------/12------(x)-------|/12-11----9----/11---------------|
|-11---\--------------------------------|------------12---------11--12p11-|
|---------------------------------------|---------------------------------|
|---------------------------------------|---------------------------------|



  ~~~~~~  .  .  .     ~~~~~~~~             ~~~~~~               full
|--------10--7------------------------|--------------------------14------|
|---------------8-----------------8p7-|------------/12--14-11----17b-----|
|------------------7/11---------------|/9-\-7----------------------------|
|-9-----------------------------------|----------------------------------|
|-------------------------------------|----------------------------------|
|-------------------------------------|----------------------------------|



       ~~~~~~~~ 				          ~~~~~~~~ full full
|------------------------------------|-----------------------------17b--17b--|
|-r17-15---------15-p-14----15-14----|-14-------------14---------------------|
|------------------------16-------16-|----16-15-15-16----16------------------|
|------------------------------------|---------------------------------------|
|------------------------------------|---------------------------------------|
|------------------------------------|---------------------------------------|



                         w/rain effect
2/4			4/4
   full full full full    full~~~~~~~~~~~~~~
|--17b--17b--17b--17b--||-17b---------------------------------------------|
|----------------------||-------------------------------------------------|
|----------------------||-------------------------------------------------|
|----------------------||-------------------------------------------------|
|----------------------||-------------------------------------------------|
|----------------------||-------------------------------------------------|
|
|Gtr 2 (dist)
|----------------------||-19---------15-----------------------------------|
|----------------------||------------------------17-----------14----------|
|----------------------||-------------------------------------------------|
|----------------------||-------------------------------------------------|
|----------------------||-------------------------------------------------|
|----------------------||-------------------------------------------------|
|
|Gtr 3 (dist)						       ~~~~~~~~~~
|----------------------||-15----------12----------------------------------|
|----------------------||-------------------------14----------------------|
|----------------------||-------------------------------------14----------|
|----------------------||-------------------------------------------------|
|----------------------||-------------------------------------------------|
|----------------------||-------------------------------------------------|
|
|Piano
|----------------------||-15-14-15-------------------------------------12-|
|----------------------||----------17-15-17-15-14-17-15-17-14----12-14----|
|----------------------||-------------------------------------14----------|
|----------------------||-------------------------------------------------|
|----------------------||-------------------------------------------------|
|----------------------||-------------------------------------------------|
 * Piano arr. for Gtr.



|-17----------14----------------------------------|-15----------14----------------------13----------|
|-------------------------15----------------------|-------------------------12----------------------|
|-------------------------------------16----------|-------------------------------------------------|
|-------------------------------------------------|-------------------------------------------------|
|-------------------------------------------------|-------------------------------------------------|
|-------------------------------------------------|-------------------------------------------------|
| 				       ~~~~~~~~~~
|-14----------------------------------------------|-12----------------------------------------------|
|-------------15----------12----------------------|-------------14----------15----------14----------|
|-------------------------------------12----------|-------------------------------------------------|
|-------------------------------------------------|-------------------------------------------------|
|-------------------------------------------------|-------------------------------------------------|
|-------------------------------------------------|-------------------------------------------------|
|
|-14-12-14----------------------------------------|-------------14----------------------13----------|
|----------15-14-15-12----12----12-------12-14-15-|-17-15-17-14----17-15-14-15-14-15-12----15-14-12-|
|----------------------14----14----12-12----------|-------------------------------------------------|
|-------------------------------------------------|-------------------------------------------------|
|-------------------------------------------------|-------------------------------------------------|
|-------------------------------------------------|-------------------------------------------------|



|-14----------12----------10----------9-----------||
|-------------------------------------------------||
|-------------------------------------------------||
|-------------------------------------------------||
|-------------------------------------------------||
|-------------------------------------------------||
|				      ~~~~~~~~~~~~
|-------------------------------------------------||
|-11----------8-----------------------------------||
|-------------------------11----------9-----------||
|-------------------------------------------------||
|-------------------------------------------------||
|-------------------------------------------------||
|
|-------------------------------------------------||
|-------------------------------------------------||
|-15-16-14-12-11----11-12-11----11----------------||
|----------------14----------14----12-12-14-12-11-||
|-------------------------------------------------||
|-------------------------------------------------||



(drums enters)

  full  grad.release        /\/\/\/               ~~~~                    full
|---------------------------------------------|-------------------------------|
|--*------------------------------------------|---------------------------17b-|
|-9b---------------r(9)-7p6-7-------(x)---6-7-|-7/9---------------------------|
|---------------------------------------9-----|-------------------------------|
|---------------------------------------------|--------10-9-9h10--9-7/(x)-----|
|---------------------------------------------|-------------------------------|
* doubled for Gtr. 3	   w/bar	PM- -



            .                full        ~~~~~
|------------------------------------------------------|
|-(17)---r-17-17p15\14h15p14------------------------14-|
|----------------------------16b--r(16)-15----/15h16---|
|------------------------------------------------------|
|------------------------------------------------------|
|------------------------------------------------------|



  full             ~~~~~~		     ~~~~~       ~~~~~    ~~~~  1/2
|-----------------------------------------|----------------------17---\-19b-r(19)-17-|
|-15b----r(15)-14-15-----\(x)\--/12h14-15-|-16----17-17/19----20---------------------|
|-----------------------------------------|------------------------------------------|
|-----------------------------------------|------------------------------------------|
|-----------------------------------------|------------------------------------------|
|-----------------------------------------|------------------------------------------|



                .  .                   full           ~~~~~~    full
|-19--17h19p17-15-17-15h17p15\14h15p14------|-------------------17b----|
|--------------------------------------17b--|--r(17)-17-----\----------|
|-------------------------------------------|--------------------------|
|-------------------------------------------|--------------------------|
|-------------------------------------------|--------------------------|
|-------------------------------------------|--------------------------|



      ~~~~~~full         ~~~~~~       full
|-17---------------------------------------------|
|----14-----15b----r(15)-14----12-10-(10)b-r(10)-|
|------------------------------------------------|
|------------------------------------------------|
|------------------------------------------------|
|------------------------------------------------|



                   ~~~~~~           full                    ~~~~       ~~~~     ~~~~
|---------------------------------------------------|-----------------------------------|
|---------------------------------------------------|-----------------------------------|
|-12-11h12p11-9-9h11-----(x)\-12p11-12b--r(12)p11-9-|-----------------------------------|
|---------------------------------------------------|-12-11-9----/9\7\5/9------------10-|
|---------------------------------------------------|------------------------/5/7-------|
|---------------------------------------------------|-----------------------------------|



                 ~~~~~  full         ~~~~~~    full   ~~~~~~full
|----------------------------------|---------------------------------|
|----------------------------------|-----------17b----17----15b---15-|
|------------9-7-6------9b----r(9)-|-7-----/(x)----------------------|
|---------------------8------------|---------------------------------|
|-/12\10-9-7-----------------------|---------------------------------|
|----------------------------------|---------------------------------|



   ~~~~~				           	       . full         ~~~~~~
|-----------------------------------------------------------------------------------------||
|-14----14p12-----------14-----14h15p14--14-15-17p15p14-15p14-----------------------------||
|-------------15---15-16--15-16--------16---------------------16-16b----r(16)-15----(15)\-||
|----------------16-----------------------------------------------------------------------||
|-----------------------------------------------------------------------------------------||
|-----------------------------------------------------------------------------------------||



       A.H.
  full full full full  ~~~~~~             full          ~~~~          ~~~~ full
|-17b--17pb-17b--17b--17-----\-14-15-17-|-15b----15-14-15----14h15p14-----------------------|
|---------------------------------------|-----------------------------17---17b--17-15h17p15-|
|---------------------------------------|---------------------------------------------------|
|---------------------------------------|---------------------------------------------------|
|---------------------------------------|---------------------------------------------------|
|---------------------------------------|---------------------------------------------------|



      full         ~~~~~~~~      full        .   full
|-------------------------------------------------------------|
|-14-----------------------------10b---r(10)-10--10b----r(10)-|
|-----16b-----r16-14-------(14)\------------------------------|
|-------------------------------------------------------------|
|-------------------------------------------------------------|
|-------------------------------------------------------------|



           full full1/2  full   full   grad.release   /\/\/\ 1 1/2
|-----------------------------------------------------------------------------|
|-8--7h8p7--------------------------------------------------------------------|
|----------9b---r(9)b---r(9)b--r(9)b--------------r-9-7------\-----6h7-7/9----|
|-------------------------------------------------------------\------------12-|
|-----------------------------------------------------------------------------|
|-----------------------------------------------------------------------------|
						      w/bar - - - -



				        semi-A.H.
             /\/\/\                      ~~~~~     full
|-------------------------------------------------------------------|
|------------------------17-15h17p15-14------------17b-----r(17)p15-|
|---------------------------------------16--------x-----------------|
|-11-p-9b--r(9)-----(x)/-------------------------x------------------|
|-------------------------------------------------------------------|
|-------------------------------------------------------------------|
             w/bar



   ~~~~~       ~~~~~                      ~~~~~   full
|-------------------9-----------------------------------|
|-17------------------12-11h12p11-----------------------|
|-------12p11-12-----------------11---------------12b---|
|----------------------------------(11)----------x------|
|--------------------------------------(x)9-----x-------|
|-------------------------------------------------------|
                                 V- - -



  full            full  full        ~~~~~~                          full
|------------------------------------------12-10h12p10-9-10-p9h10p9-----------------|
|-------------------------------------------------------------------12b----r(12)-11-|
|-12pb---r(12)p-9-9b--r(9)b--r(9)p7-------------------------------------------------|
|-----------------------------------9-----------------------------------------------|
|-----------------------------------------------------------------------------------|
|-----------------------------------------------------------------------------------|



     ~~~~~~~~~~~~~~~~               full- -     ~~~~~~
|--------------------------||-----------------------------------|
|-11h12--------------(12)\-||-------10b-10pb--r10---------------|
|--------------------------||-9-------------------------------9-|
|--------------------------||-------------------------9/11-12---|
|--------------------------||-----------------------------------|
|--------------------------||-----------------------------------|



  1/2          ~~~~~~       full        ~~~~~                    ~~~~~~
|---------------------------------------------------|-------------------------|
|---------------------------------------------------|-------------------------|
|-11b-r(11)p9-11------9-7-9-9b---r(9)p7---------6h7-|/9-9--7h9p7-6------4-3---|
|---------------------------------------9-----9-----|-----------------------5-|
|---------------------------------------------------|-------------------------|
|---------------------------------------------------|-------------------------|
                     semiPM



                           ~~~~~                        1/2                     .
|----------------------|---------------------------------------------------------------12--13-12h13p12-|
|----------------------|---------------12-12h14-12h14p12-11b--r(11)------------------------------------|
|----------------------|-------------------------------------------12--11-12-11-9--8-------------------|
|-4-2-4-5-4-2----------|-------------------------------------------------------------------------------|
|------------5-4-2-1---|-------------------------------------------------------------------------------|
|--------------------2-|-(2)/7----/(15)----------------------------------------------------------------|



            ~~~~~                  full grad  .                         full hold full           /\/\/\/
|-----------------12-10h12p10-9-/--17b-------17-|15-17-15h17p15\14h15p14------17--------------------------|
|-10--------------------------------------------|-----------------------17b------r17b---r(17)p15----------|
|----12-11-12-----------------------------------|------------------------------------------------16-----\-|
|-----------------------------------------------|---------------------------------------------------------|
|-----------------------------------------------|---------------------------------------------------------|
|-----------------------------------------------|---------------------------------------------------------|
											 w/bar


                    1/2                                      1 1/2
   V     full        V ~~~~~        			      \/    full full full
|-------------|--------------------------------------------------------------------|
|-/12-14-15b--|-r15-14-------15--14-11-14-12p11h12p11------------------------------|
|-------------|--------------------------------------9--------------7b-r(7)b-r(7)b-|
|-------------|---------------------------------------11-----------x---------------|
|-------------|-----------------------------------------9/12-9---(9)---------------|
|-------------|--------------------------------------------------------------------|
  w/bar              w/bar - 				     w/bar



						  grad. bend
         /\/\/\/\			          full
|------------------7----------------------------7---------------------|
|--------------------10p8-10-8h10p8\7h8p7\5h7p5---10b-----------------|
|-r(7)p6-7-------\-----------------------------9----------------------|
|---------------------------------------------------------------------|
|---------------------------------------------------------------------|
|---------------------------------------------------------------------|
	 w/bar


										   wide vib grad.
       ~~~~~     ~~~~~    full         ~~~~~				     ~~~~~  ~~~~~   full
|-------------------------------------------|------------------------------------------------------|
|-8p7-8-----7h8p7-----7-8-8b-----r(8)-------|------------------------------------------------------|
|----------------9-------------------6-6----|-7-6-7-6h7p6-----------------------------------7b-----|
|-------------------------------------------|------------9-7---------------------------------------|
|-------------------------------------------|---------------10-\5/7\5/7--5-4-5----4----------------|
|-------------------------------------------|---------------------------------------7----(X)-------|



        wide vib                        grad.
  full  ~~~~~~                  ~~~~~   full  .                              *full - - - -|     full full
|-----------------------------------------------|------------7-9-10-9h10p9-7--------------------17b-17b-||
|-----------------------------------------------|--------------------------x-10brbrbrbrbr(10)-----------||
|-(7)---5-------(x)-5-4h5p4-3-----------9b----9-|-9p7h9p7\6-7--------------------------------x----------||
|-----------------------------5-4----/x---------|--------------------------------------------x-x--------||
|-----------------------------------------------|----------------------------------------------x--------||
|-----------------------------------------------|-------------------------------------------------------||
									      *(bend & release)


  full        					~~~~~~
|-17b----17----15--p14h15p14h15p14-------------------|
|----------------------------------17----15----14----|
|----------------------------------------------------|
|----------------------------------------------------|
|----------------------------------------------------|
|----------------------------------------------------|



						~~~~~~
|-17----15----14-h15p14h15p14-------------------------|
|-----------------------------17----15----14----------|
|-----------------------------------------------16----|
|-----------------------------------------------------|
|-----------------------------------------------------|
|-----------------------------------------------------|



					     ~~~~~
|-15----14h15p14--------------------------------------|
|----------------17----15----15p14--------------------|
|-------------------------------------16----15----x---|
|-------------------------------------------------x---|
|-----------------------------------------------------|
|-----------------------------------------------------|



 Gtr 1
  full          full           full           full- - - ~~         full
|-17b----17-14--17b--r(17)p14--17b--r(17)p14--17brbrbrbr--14-14-15-15b-|
|----------------------------------------------------------------------|
|----------------------------------------------------------------------|
|----------------------------------------------------------------------|
|----------------------------------------------------------------------|
|----------------------------------------------------------------------|
|
|Gtr 2 (dist)							   full
|----------------------------------------------------------------------|
|---------------------------------------------------------16-16-17-17b-|
|----------------------------------------------------------------------|
|----------------------------------------------------------------------|
|----------------------------------------------------------------------|
|----------------------------------------------------------------------|



   ~~~~~~              1/2  ~~~~~~           1/2       ~~~~~~~~
|-15-----(15)\--/19-21-21b-21-----21-19-21-|-21b-----------------------||
|------------------------------------------|------19--19---------------||
|------------------------------------------|---------------------------||
|------------------------------------------|---------------------------||
|------------------------------------------|---------------------------||
|------------------------------------------|---------------------------||
|
|  ~~~~~~              1/2  ~~~~~~           1/2       ~~~~~~~~~
|---------------/16-18-18b-18-----18-16-18-|-18b-----------------------||
|-17-----(17)\-----------------------------|-------15--15--------------||
|------------------------------------------|---------------------------||
|------------------------------------------|---------------------------||
|------------------------------------------|---------------------------||
|------------------------------------------|---------------------------||



free Time

 Gtr 4 (clean)
						 full
|-----12--14--15--14--12-----------------------|--------------------------------|
|-15----------------------15--14-----11h12--14-|-12b------(12)pbr12-11--12------|
|----------------------------------------------|--------------------------------|
|----------------------------------------------|--------------------------------|
|----------------------------------------------|--------------------------------|
|----------------------------------------------|--------------------------------|
|
|Gtr 5 (clean)
|						 full
|------9--11--12--11---9-----------------------|--------------------------------|
|-12----------------------12--11------7h8--10--|-8b--------(8)pbr8--7---8-------|
|----------------------------------------------|--------------------------------|
|----------------------------------------------|--------------------------------|
|----------------------------------------------|--------------------------------|
|----------------------------------------------|--------------------------------|



(all gtrs. tacet )
 Gtr 6 ( nylon )

|--7----9----10----------------------------------------------------||
|---------------(7)--------7---------------------------------------||
|--------------------------7---------------------------------------||
|--------------------------9---------------------------------------||
|--------------------------9---------------------------------------||
|--------------------------7---------------------------------------||
			  ^ roll

===================================================
Colaboracion de Dilan de la Vega



Acordes para guitarra
x

Todo acerca de Rata Blanca