Acordes para guitarra

Indice Rammstein

guitartabs





          Bestrafe Mich
          By Rammstein
          From Sehnsucht
          Tabbed by Mike Gagnon
          Standard Tuning
          
          Chorus
          
          G-----------------------------------------------------------------------
          D-----------------------------------------------------------------------
          A-------------------------2--2--2--2--2--0--2--3--3--3--3--3--3--0--3--4
          E-2--2--2--2--2--0--2--3------------------------------------------------
          
          G---------------------------------------------------------------------
          D---------------------------------------------------------------------
          A-------------------------3--3--3--3--3--0--4--2--2--2--2--2--0--2--3-
          E-2--2--2--2--2--0--2--3----------------------------------------------
          
          Main Riff
          
          G------------------------------------------------------------------
          D------------------------------------------------------------------
          A------------------------------------------------------------------
          E-2--2--2--2--2--2--2--2--2--2--2--2--2--2--2--2--2--2--2--2--2--2-
          
          Verse
          
          G-------------------------------------------------
          D-------------------------------------------------
          A-------------------------------------------------
Acordes para guitarra
x

Todo acerca de Rammstein