Acordes para guitarra

Indice Rammstein

guitartabs





Band: Rammstein

Album: Mutter

Song: Spieluhr

Tabbed by: Sammy

Verse:
e|----------------------------------------------------|
B|----------------------------------------------------|
G|----------------------------------------------------|
D|--3-0-0-3-0-0-3-0-0-3-00-3-0-0-3-0-0-3-0-0-3-6-6-6--|
A|--3-0-0-3-0-0-3-0-0-3-00-3-0-0-3-0-0-3-0-0-3-6-6-6--|
D|--3-0-0-3-0-0-3-0-0-3-00-3-0-0-3-0-0-3-0-0-3-6-6-6--|

Chorus:
e|------------------------------------------------------------------|
B|------------------------------------------------------------------|
G|--7-7-7-7-7-7-7-7-7-7-7-7-7-7-7-7-5-5-5-5-5-5-5-5-5-5-5-5-5-5-5-5-|
D|--7-7-7-7-7-7-7-7-7-7-7-7-7-7-7-7-5-5-5-5-5-5-5-5-5-5-5-5-5-5-5-5-|
A|--5-5-5-5-5-5-5-5-5-5-5-5-5-5-5-5-3-3-3-3-3-3-3-3-3-3-3-3-3-3-3-3-|
D|------------------------------------------------------------------|

e|----------------------------------------------------------|
B|----------------------------------------------------------|
G|--7-7-7-7-7-7-7-7-7-7-7-7-7-7-7-7-10-10-10-10-10-10-10-10-|
D|--7-7-7-7-7-7-7-7-7-7-7-7-7-7-7-7-10-10-10-10-10-10-10-10-|
A|--5-5-5-5-5-5-5-5-5-5-5-5-5-5-5-5-08-08-08-08-08-08-08-08-|
D|----------------------------------------------------------|

e|-------------------|
B|-------------------|
G|-------------------|
D|--7-7-7-7-7-7-7-7--|
A|--7-7-7-7-7-7-7-7--|
D|--7-7-7-7-7-7-7-7--|

Solo:
e|------------------------------------------------------------------------------|
B|------------------------------------------------------------------------------|
G|------------------------------------------------------------------------------|
D|------------------------------------------------------------------------------|
A|--5-5-5-5-5-5-5-5-8-8-8-8-----------------------------12-12-12-12-12-12-12-12-|
D|--------------------------8-8-8-8-8-8-8-8-10-10-10-10-------------------------|

e|--------------------------------------------------------------|
B|--------------------------------------------------------------|
G|--------------------------------------------------------------|
D|--------------------------------------------------------------|
A|--12-8-8-8-8-8-8-8-8-10-10-10-10-10-10-10-10-7-7-7-7-7-7-7-7--|
D|--------------------------------------------------------------|

Acordes para guitarra
x

Todo acerca de Rammstein