Acordes para guitarra

Indice Rammstein

guitartabs





Artist:Rammstein
song:sonne
Tab by:till (jķakim)


steve this tab is correct.

play this part x2
-----------------------------------------------|
-----------------------------------------------|
-----------------------------------------------|
-0-6-0-6-5-0-0-6-0-6-0-0-6-0-6-5-0-0-6-0-6-555-|

Alle warten auf das licht
-------------------------|
-------------------------|
-------------------------|
-0-6-0-6-5-0-0-6-0-6-0---|

Furchtet euch furchtet euch nicht
-------------------------|
-------------------------|
-------------------------|
-0-6-0-6-5-0-0-6-0-6-0---|

die sonne scheint mir aus den augen
-------------------------|
-------------------------|
-------------------------|
-0-6-0-6-5-0-0-6-0-6-0---|

sie wird heute nact nicht untergehen
und die welt zahlt laut bis zehn. 

hier kommt die sonne 
hier kommt die sonne
sie ist der hellste stern von allen 
hier komm die sonne
x5
-------------------------|
-------------------------|
-2-2---------------------|
-----2-2-0-0-3-3---------|

x1
-----------------------------------------------|
-----------------------------------------------|
-----------------------------------------------|
-0-6-0-6-5-0-0-6-0-6-0-0-6-0-6-5-0-0-6-0-6-555-|

die sonne schint mir aus den handen
kann verbrennen kann euch blenden
wenn sie aus fausten bricht
legt sich heiss auf das gesicht.

-----------------------|
-----------------------|
-----------------------|
-0-6-0-6-5-0-0-6-0-6-0-|

sie wird heut nacht nicht untergehen
und die welt zahlt laut bis zehn.

hier kommt die sonne 
hier kommt die sonne
sie ist der hellste stern von allen 
hier komm die sonne
x10
-------------------------|
-------------------------|
-2-2---------------------|
-----2-2-0-0-3-3---------|


die sonne schint mir aus den handen
kann verbrennen kann euch blenden
wenn sie aus fausten bricht
legt sich heiss auf das gesicht
legt sich scehmerzend auf die brust
das gleichgewicht wird zum verlust
lasst dich hart zu boden gehen
und die welt zahlt laut bis zehn.

hier kommt die sonne 
hier kommt die sonne
sie ist der hellste stern von allen 
hier komm die sonne

-------------------------|
-------------------------|
-2-2---------------------|
Acordes para guitarra
x

Todo acerca de Rammstein