Acordes para guitarra

Indice Rammstein

guitartabs





RAMMSTEIN: SEEMAN 12:08 p.m. 22/12/03 BY MARCIO CASTRO.

D#|------------------------------------|
A#|------------------------------------|
F#|-----7--------5---------------------|
C#|-----------------------8--------7---|
G#|---8---8----8---8----8---8----8---8-|
C#|-8--------8--------8--------8-------|

D#|------------------------------------|
A#|------------------------------------|
F#|------------------------------------|
C#|-----5--------5--------7--------7---|
G#|---3---3----3---3----3---3----3---3-|
C#|-7--------7--------7--------7-------|

D#|------------------------------------|
A#|------------------------------------|
F#|-----3------------------------------|
C#|--------------7--------5--------3---|
G#|---5---4----5---5----5---5----5---5-|
C#|-5--------5--------5--------5-------|

D#|------------------------------------|
A#|------------------------------------|
F#|------------------------------------|
C#|-----0-----------------0--------0---|
G#|---0---0----0-4-0----0---0----0---0-|
C#|-0--------0--------0--------0-------|

REF:
D#|-----------| D#|---|
A#|-----------| A#|---|
F#|-----------| F#|---|
C#|-8-10-5-12-| C#|-3-|
G#|-8-10-5-12-| G#|-3-|
C#|-8-10-5-12-| C#|-3-|
    A  B F C#       E

Seemann:

Komm in mein Boot, ein Sturm kommt auf, und es wird Nacht,
Wo willst du hin, so ganz allein, treibst du davon,
Wer  h(a)lt deine Hand, wenn es dich, nach unten zieht

 D#|-----------|
 A#|-----------|
 F#|-----------|
 C#|-12-10-8-7-|
 G#|-12-10-8-7-|
 C#|-12-10-8-7-|
     C#  B A G#

Wo willst du hin, so uferlos, die kalte See, komm in mein Boot,
der Herbstwind h(a)lt, die Segel straff

REF: Jetzt stehst du da an der Laterne, mit Tr(a)nen im Gesicht,
das tageslicht f(a)llt auf die Seite, der Herbstwind fegt die Strasse leer,
Jetzt stehst du da an der Laterne, hast Tr(a)nen in Gesicht,
das Abendlicht verjagt sie Schatten, die Zeit steht still und es wird Herbst  E

Komm in mein Boot, die sehnsucht wird, der Steuermannn,
Komm in mein Boot, der beste Seemann, war doch ich

REF: : Jetzt stehst du da an der Laterne, has Tr(a)nen im Gesicht,
das Feuer nimmst du von der Kerze, die Zeit steht still,
und es wird Herbst, Sie sprachen nur von deiner Mutter,
so gnadenlos ist nur die Nacht, am Ende bleib ich doch allein,
Acordes para guitarra
x

Todo acerca de Rammstein