Acordes para guitarra

Indice Rammstein

guitartabs





I play this song all the time it kicks ass.

Tunning:
G
D
A
E

Verse(repeat how ever many times both parts)
------------------------------------|
------------------------------------|
-------------------3----------------|
3-5-5-5-5-5-5-5-5---5-5-5-5-5-5-5-5-|

------------------------------------|
------------------------------------|
------------------------------------|
3-5-5-5-5-5-5-5-5-3-5-5-5-5-5-5-5-5-|

ending of the verse
------------------------------------|
------------------------------------|
------------------------------------|
3-5-5-5-5-5-5-5-5-1-1-1-1-1-1-1-1-1-|

-----------------------------------|
-----------------------------------|
-----------------------------------|
0-0-0-0-0-0-0-0-0------------------|


Bridge
------------------------------------|
------------------------------------|
------------------------------------|
3-5-5-5-5-5-5-5-5-3-5-5-5-5-5-5-5-5-|

------------------------------------|
------------------------------------|
3-5-5-5-5-5-5-5-5-3-5-5-5-5-5-5-5-5-|
------------------------------------|

------------------------------------|
------------------------------------|
5-7-7-7-7-7-7-7-7-3-5-5-5-5-5-5-5-5-|
------------------------------------|

------------------------------------|
------------------------------------|
------------------------------------|
3-5-5-5-5-5-5-5-5-3-5-5-5-5-5-5-5-5-|

verse
------------------------------------|
------------------------------------|
-------------------3----------------|
3-5-5-5-5-5-5-5-5---5-5-5-5-5-5-5-5-|

------------------------------------|
------------------------------------|
------------------------------------|
3-5-5-5-5-5-5-5-5-3-5-5-5-5-5-5-5-5-|

ending of the verse
------------------------------------|
------------------------------------|
------------------------------------|
3-5-5-5-5-5-5-5-5-1-1-1-1-1-1-1-1-1-|

-----------------------------------|
-----------------------------------|
-----------------------------------|
0-0-0-0-0-0-0-0-0------------------|


Chorus
------------------------------------|
------------------------------------|
------------------------------------|
3-5-5-5-5-5-5-5-5-3-5-5-5-5-5-5-5-5-|

------------------------------------|
------------------------------------|
3-5-5-5-5-5-5-5-5-3-5-5-5-5-5-5-5-5-|
------------------------------------|

------------------------------------|
------------------------------------|
5-7-7-7-7-7-7-7-7-3-5-5-5-5-5-5-5-5-|
------------------------------------|

------------------------------------|
------------------------------------|
------------------------------------|
3-5-5-5-5-5-5-5-5-3-5-5-5-5-5-5-5-5-|

Verse
------------------------------------|
------------------------------------|
-------------------3----------------|
3-5-5-5-5-5-5-5-5---5-5-5-5-5-5-5-5-|

------------------------------------|
------------------------------------|
------------------------------------|
3-5-5-5-5-5-5-5-5-3-5-5-5-5-5-5-5-5-|

ending of the verse
------------------------------------|
------------------------------------|
------------------------------------|
3-5-5-5-5-5-5-5-5-1-1-1-1-1-1-1-1-1-|

-----------------------------------|
-----------------------------------|
-----------------------------------|
0-0-0-0-0-0-0-0-0------------------|

Chorus
------------------------------------|
------------------------------------|
------------------------------------|
3-5-5-5-5-5-5-5-5-3-5-5-5-5-5-5-5-5-|

------------------------------------|
------------------------------------|
3-5-5-5-5-5-5-5-5-3-5-5-5-5-5-5-5-5-|
------------------------------------|

------------------------------------|
------------------------------------|
5-7-7-7-7-7-7-7-7-3-5-5-5-5-5-5-5-5-|
------------------------------------|

------------------------------------|
------------------------------------|
------------------------------------|
3-5-5-5-5-5-5-5-5-3-5-5-5-5-5-5-5-5-|

Thats it if you have any questions please let me know this was my first tab let me know 
Acordes para guitarra
x

Todo acerca de Rammstein