Acordes para guitarra

Indice Rammstein

guitartabs





Mein Herz Brennt

          tabbed by Ivan 
          
          Tuning (CGCFAD)
          
          Intro/Chorus
          
          D----------------------------------------------------
          A----------------------------------------------------
          F----------------------------------------------------
          C-0-0-0--0-0-0--0-0-0-0-0-0--0---0-0-0---0-0-0--0--2-
          G-0-0-0--0-0-0--0-0-0-0-0-0--0---0-0-0---0-0-0--0--2-
          C-0-0-0--0-0-0--0-0-0-0-0-0--0---0-0-0---0-0-0--0--2-
          
          Pre-Chorus
          
          D-------------------------------------------------------
          A-------------------------------------------------------
          F-7------------------------------------3--------------5-
          C-7---------------------5--------------3--------------5-
          G-5---------------------5--------------1--------------3-
          C-----------------------5-------------------------------
          
          D-------------------------------------------------------
          A-------------------------------------------------------
          F-7-----------------------------------------------------
          C-7---------------------5--------------3--------------2-
          G-5---------------------5--------------3--------------2-
          C-----------------------5--------------3--------------2-
          
          Solo
          
          D-------------------------------------------------------------------------------------
          A-7-7-7-7-9-9-9-9-10-10-10-10-12-12-12-12-10-10-10-10-12-12-12-12---------------------
          F-----------------------------------------------------------------10-10-10-10-9-9-9-9-
          C-------------------------------------------------------------------------------------
          G-------------------------------------------------------------------------------------
          C-------------------------------------------------------------------------------------
          
          Rhythm during solo
          
          D-------------------------------------------------------
          A-------------------------------------------------------
          F-------------------------------------------------------
          C-2-2-2---2-2-2---2-2-2-2-2-2---2---2-2-2---2-2-2--2--4-
          G-2-2-2---2-2-2---2-2-2-2-2-2---2---2-2-2---2-2-2--2--4-
Acordes para guitarra
x

Todo acerca de Rammstein