Acordes para guitarra

Indice Rammstein

guitartabs





  
Here you can find you tabs for Links 2,3,4 from Rammstein

The song is mostely playd with power chords


     Em        F     (Play this 3 times)
E----0---------1---
B----0---------1---
G----0---------2---
D----2---------3---
A----2---------3---
E----0---------1---

Then…

     Em        F        A       B        B#
E----0---------1--------5-------7--------8
B----0---------1--------5-------7--------8
G----0---------2--------6-------8--------9
D----2---------3--------7-------9--------10
A----2---------3--------7-------9--------10
E----0---------1--------5-------7--------8

 
:: Ultimate Guitar Archive :: 
http://www.ultimate-guitar.com 



Acordes para guitarra
x

Todo acerca de Rammstein