Acordes para guitarra

Indice Rammstein

guitartabs





-------------------------------------------------------------------------------
			     HALLELUJA- Rammstein
-------------------------------------------------------------------------------
Tabbed by: Matt Richards

Tuning: Dropped D

Hey people, this is my first tab that i have done without "borrowing" from other
peoples tabs, and that is because everyone elses tab for this song sucks. I'm
sorry if you're one of the people that wrote the other tab, but you suck. Sell
your guitar and pick up a hobby more suited for you.

Intro:
e|-----------------|
B|-----------------|
G|-----------------|
D|--6-6-3---4-4-3--|
A|--6-6-3---4-4-3--|
D|--6-6-3---4-4-3--| x4

e|----------------------|
B|----------------------|
G|----------------------|
D|--6-6-3---4-4-3--6-6--|
A|--6-6-3---4-4-3--6-6--|
D|--6-6-3---4-4-3--6-6--|

riff 1
e|-------------------------------------------|
B|-------------------------------------------|
G|-------------------------------------------|
D|--3xxx3xxx3xxx3xx4-4--3xxx3xxx3xxx3xx-6-6--|
A|--3xxx3xxx3xxx3xx4-4--3xxx3xxx3xxx3xx-6-6--|
D|--3xxx3xxx3xxx3xx4-4--3xxx3xxx3xxx3xx-6-6--|

e|---------------------------------------|
B|---------------------------------------|
G|---------------------------------------|
D|--3xxx3xxx3xxx3xx4-4--3xxx3xxx3xxx3xx--|
A|--3xxx3xxx3xxx3xx4-4--3xxx3xxx3xxx3xx--|
D|--3xxx3xxx3xxx3xx4-4--3xxx3xxx3xxx3xx--|

verse:
e|-----------------|
B|-----------------|
G|-----------------|
D|--6-6-3---4-4-3--|
A|--6-6-3---4-4-3--|
D|--6-6-3---4-4-3--| x3 

e|----------------------|
B|----------------------|
G|----------------------|
D|--6-6-3---4-4-3--6-6--|
A|--6-6-3---4-4-3--6-6--|
D|--6-6-3---4-4-3--6-6--|

riff 1 x1

chorus:
e|--------------------------------------|
B|--------------------------------------|
G|--------------------------------------|
D|--3--11-11-8---11-11-6--10-10-4--6-6--|
A|--3--11-11-8---11-11-6--10-10-4--6-6--|
D|--3--11-11-8---11-11-6--10-10-4--6-6--|

verse 2:
bass plays only for first part, then guitar joins plays chorus,
stop holding note when piano plays

chorus x3

riff 1 x1

| /  slide up
| \  slide down
| h  hammer-on
| p  pull-off
| ~  vibrato
| +  harmonic
| x  Mute note
Acordes para guitarra
x

Todo acerca de Rammstein