Acordes para guitarra

Indice Rammstein

guitartabs





----------------------------------------------------------------------------
			     Ein Lied - Rammstein
----------------------------------------------------------------------------

Tabbed By : Bee-Ay

Tuning: D-G-C-F

I know that this song is tabbed out, right, on guitar, 
but i have to say it: its bass.
And i think that there are a few bass-players that would like to play it:

Verse and Chorus:
F|-----------------------------|-----------------------------|
C|*--------17-------------17---|---------16-------------16---|
G|*-----14----14-------14----14|------17----17-------17----17|
D|---12-------------12---------|---15-------------15---------|

F|-----------------------------|--------------------------------|
C|---------19-------------19---|---------16-------------16-----*|
G|------16----16-------16----16|------16----16-------16----16--*|
D|---14-------------14---------|---14-------------14------------|


Bridge:
F|--------------------------|--------19-------------19---|
C|------17-------------17---|-----16----16-------16----16|
G|---17----17-------17----17|--14-------------14---------|
D|15-------------15---------|----------------------------|

F|------18-------------18-------------18-------------18---|
C|--------------------------------------------------------|
G|---16----16-------16----16-------16----16-------16----16|
D|14-------------14-------------14-------------14---------|

F|--------------------------|--------16-------------16---|
C|------17-------------17---|-----16----16-------16----16|
G|---17----17-------17----17|--14-------------14---------|
D|15-------------15---------|----------------------------|

F|-------------------------------------------------------|
C|------16-------------16------------16-------------16---|
G|---16----16-------16----16------16----16-------16----16|
D|14-------------14------------14-------------14---------|

Break with bass only:
F|-------------|-------------------------|------------------|
C|-------------|-------------------------|------------------|
G|-------------|----------------2--------|-----2------------|
D|0-----2-----5|0-----2-----3-------2---2|--3------2---2---0|

End:
F|-------------|---------------|
C|-------------|---------------|
G|-------------|---------------|
D|0---3---2---2|--0---3---2---2|

Comment, rate or mail, just like you fell..
 
Acordes para guitarra
x

Todo acerca de Rammstein