Acordes para guitarra

Indice Rammstein

guitartabs





T: 130 bpm
                                                                          2x
E||-----------------------------------|-----------------------------------||
B||-----------------------------------|-----------------------------------||
G||*----------7/8---------7/8-----7/8-|----------7/8---------7/8-----5/6-*||
D||*----------7/8---------7/8-----7/8-|----------7/8---------7/8-----5/6-*||
A||-----------5/6---------5/6-----5/6-|----------5/6---------5/6-----3/4--||
D||---0-0-0-0-----0-0-0-0-----0-0-----|--0-0-0-0-----0-0-0-0-----0-0------||


                                                                      
----------------------------------|----------------------------------|
----------------------------------|----------------------------------|
----------7/8---------7/8-----7/8-|----------7/8---------7/8-----5/6-|
----------7/8---------7/8-----7/8-|----------7/8---------7/8-----5/6-|
----------5/6---------5/6-----5/6-|----------5/6---------5/6-----3/4-|
--0-0-0-0-----0-0-0-0-----0-0-----|--0-0-0-0-----0-0-0-0-----0-0-----|


                                                                      
----------------------------------|----------------------------------|
----------------------------------|----------------------------------|
----------7/8---------7/8-----7/8-|----------7/8---------7/8-----5/6-|
----------7/8---------7/8-----7/8-|----------7/8---------7/8-----5/6-|
----------5/6---------5/6-----5/6-|----------5/6---------5/6-----3/4-|
--0-0-0-0-----0-0-0-0-----0-0-----|--0-0-0-0-----0-0-0-0-----0-0-----|


                                                                      
----------------------------------|----------------------------------|
----------------------------------|----------------------------------|
----------7/8---------7/8-----7/8-|----------7/8---------7/8-----5/6-|
----------7/8---------7/8-----7/8-|----------7/8---------7/8-----5/6-|
----------5/6---------5/6-----5/6-|----------5/6---------5/6-----3/4-|
--0-0-0-0-----0-0-0-0-----0-0-----|--0-0-0-0-----0-0-0-0-----0-0-----|


                                                                      
----------------------------------|----------------------------------|
----------------------------------|----------------------------------|
----------7/8---------7/8-----7/8-|----------7/8---------7/8-----5/6-|
----------7/8---------7/8-----7/8-|----------7/8---------7/8-----5/6-|
----------5/6---------5/6-----5/6-|----------5/6---------5/6-----3/4-|
--0-0-0-0-----0-0-0-0-----0-0-----|--0-0-0-0-----0-0-0-0-----0-0-----|


                                                                      
----------------------------------|----------------------------------|
----------------------------------|----------------------------------|
----------7/8---------7/8-----7/8-|----------7/8---------7/8-----5/6-|
----------7/8---------7/8-----7/8-|----------7/8---------7/8-----5/6-|
----------5/6---------5/6-----5/6-|----------5/6---------5/6-----3/4-|
--0-0-0-0-----0-0-0-0-----0-0-----|--0-0-0-0-----0-0-0-0-----0-0-----|


                                                                      
----------------------|-----------------------|----------------------|
----------------------|-----------------------|----------------------|
--7----5----7----5----|--7----5----7----5--8--|--7----5----7----5----|
--7----5----7----5----|--7----5----7----5--8--|--7----5----7----5----|
--5----3----5----3----|--5----3----5----3--6--|--5----3----5----3----|
----------------------|-----------------------|----------------------|


                                                                                          
-----------------------|----------------------|-----------------------|------------------|
-----------------------|----------------------|-----------------------|------------------|
--7----5----7----5--8--|--7----5----7----5----|--7----5----7----5--8--|------------------|
--7----5----7----5--8--|--7----5----7----5----|--7----5----7----5--8--|------------------|
--5----3----5----3--6--|--5----3----5----3----|--5----3----5----3--6--|------------------|
-----------------------|----------------------|-----------------------|------------------|


                                                                                     
------------------|----------------------------------|------------------------------|
------------------|----------------------------------|------------------------------|
------------------|----------7/8---------7/8-----7/8-|----------7/8---------7/8-----|
------------------|----------7/8---------7/8-----7/8-|----------7/8---------7/8-----|
------------------|----------5/6---------5/6-----5/6-|----------5/6---------5/6-----|
------------------|--0-0-0-0-----0-0-0-0-----0-0-----|--0-0-0-0-----0-0-0-0---------|


                                                                         
------------------|------------------|----------------------------------|
------------------|------------------|----------------------------------|
------------------|------------------|----------7/8---------7/8-----7/8-|
------------------|------------------|----------7/8---------7/8-----7/8-|
------------------|------------------|----------5/6---------5/6-----5/6-|
------------------|------------------|--0-0-0-0-----0-0-0-0-----0-0-----|


                                                                     
------------------------------|------------------|------------------|
------------------------------|------------------|------------------|
----------7/8---------7/8-----|------------------|------------------|
----------7/8---------7/8-----|------------------|------------------|
----------5/6---------5/6-----|------------------|------------------|
--0-0-0-0-----0-0-0-0---------|------------------|------------------|


                                                                                     
----------------------------------|------------------------------|------------------|
----------------------------------|------------------------------|------------------|
----------7/8---------7/8-----7/8-|----------7/8---------7/8-----|------------------|
----------7/8---------7/8-----7/8-|----------7/8---------7/8-----|------------------|
----------5/6---------5/6-----5/6-|----------5/6---------5/6-----|------------------|
--0-0-0-0-----0-0-0-0-----0-0-----|--0-0-0-0-----0-0-0-0---------|------------------|


                                                         
------------------|------------------|------------------|
------------------|------------------|------------------|
------------------|------------------|------------------|
------------------|------------------|------------------|
------------------|------------------|------------------|
------------------|------------------|------------------|


                                                                      
----------------------------------|----------------------------------|
----------------------------------|----------------------------------|
----------7/8---------7/8-----7/8-|----------7/8---------7/8-----5/6-|
----------7/8---------7/8-----7/8-|----------7/8---------7/8-----5/6-|
----------5/6---------5/6-----5/6-|----------5/6---------5/6-----3/4-|
--0-0-0-0-----0-0-0-0-----0-0-----|--0-0-0-0-----0-0-0-0-----0-0-----|


                                                                      
----------------------------------|----------------------------------|
----------------------------------|----------------------------------|
----------7/8---------7/8-----7/8-|----------7/8---------7/8-----5/6-|
----------7/8---------7/8-----7/8-|----------7/8---------7/8-----5/6-|
----------5/6---------5/6-----5/6-|----------5/6---------5/6-----3/4-|
--0-0-0-0-----0-0-0-0-----0-0-----|--0-0-0-0-----0-0-0-0-----0-0-----|


                                                                      
----------------------------------|----------------------------------|
----------------------------------|----------------------------------|
----------7/8---------7/8-----7/8-|----------7/8---------7/8-----5/6-|
----------7/8---------7/8-----7/8-|----------7/8---------7/8-----5/6-|
----------5/6---------5/6-----5/6-|----------5/6---------5/6-----3/4-|
--0-0-0-0-----0-0-0-0-----0-0-----|--0-0-0-0-----0-0-0-0-----0-0-----|


                                                                      
----------------------------------|----------------------------------|
----------------------------------|----------------------------------|
----------7/8---------7/8-----7/8-|----------7/8---------7/8-----5/6-|
----------7/8---------7/8-----7/8-|----------7/8---------7/8-----5/6-|
----------5/6---------5/6-----5/6-|----------5/6---------5/6-----3/4-|
--0-0-0-0-----0-0-0-0-----0-0-----|--0-0-0-0-----0-0-0-0-----0-0-----|


                                                                  
----------------------------------|------------------------------|
----------------------------------|------------------------------|
----------7/8---------7/8-----7/8-|----------7/8---------7/8-----|
----------7/8---------7/8-----7/8-|----------7/8---------7/8-----|
----------5/6---------5/6-----5/6-|----------5/6---------5/6-----|
--0-0-0-0-----0-0-0-0-----0-0-----|--0-0-0-0-----0-0-0-0---------|


                                                                  
----------------------------------|------------------------------|
----------------------------------|------------------------------|
----------7/8---------7/8-----7/8-|----------7/8---------7/8-----|
----------7/8---------7/8-----7/8-|----------7/8---------7/8-----|
----------5/6---------5/6-----5/6-|----------5/6---------5/6-----|
--0-0-0-0-----0-0-0-0-----0-0-----|--0-0-0-0-----0-0-0-0---------|


                                                                  
----------------------------------|------------------------------|
----------------------------------|------------------------------|
----------7/8---------7/8-----7/8-|----------7/8---------7/8-----|
----------7/8---------7/8-----7/8-|----------7/8---------7/8-----|
----------5/6---------5/6-----5/6-|----------5/6---------5/6-----|
--0-0-0-0-----0-0-0-0-----0-0-----|--0-0-0-0-----0-0-0-0---------|


                                                                                         
----------------------------------|------------------------------|----------------------|
----------------------------------|------------------------------|----------------------|
----------7/8---------7/8-----7/8-|----------7/8---------7/8-----|--7----5----7----5----|
----------7/8---------7/8-----7/8-|----------7/8---------7/8-----|--7----5----7----5----|
----------5/6---------5/6-----5/6-|----------5/6---------5/6-----|--5----3----5----3----|
--0-0-0-0-----0-0-0-0-----0-0-----|--0-0-0-0-----0-0-0-0---------|----------------------|


                                                                       
-----------------------|----------------------|-----------------------|
-----------------------|----------------------|-----------------------|
--7----5----7----5--8--|--7----5----7----5----|--7----5----7----5--8--|
--7----5----7----5--8--|--7----5----7----5----|--7----5----7----5--8--|
--5----3----5----3--6--|--5----3----5----3----|--5----3----5----3--6--|
-----------------------|----------------------|-----------------------|


                                                                                     
----------------------|-----------------------|------------------|------------------|
----------------------|-----------------------|------------------|------------------|
--7----5----7----5----|--7----5----7----5--8--|------------------|------------------|
--7----5----7----5----|--7----5----7----5--8--|------------------|------------------|
--5----3----5----3----|--5----3----5----3--6--|------------------|------------------|
----------------------|-----------------------|------------------|------------------|


                                                                                     
----------------------------------|------------------------------|------------------|
----------------------------------|------------------------------|------------------|
----------7/8---------7/8-----7/8-|----------7/8---------7/8-----|------------------|
----------7/8---------7/8-----7/8-|----------7/8---------7/8-----|------------------|
----------5/6---------5/6-----5/6-|----------5/6---------5/6-----|------------------|
--0-0-0-0-----0-0-0-0-----0-0-----|--0-0-0-0-----0-0-0-0---------|------------------|


                                                                                     
------------------|----------------------------------|------------------------------|
------------------|----------------------------------|------------------------------|
------------------|----------7/8---------7/8-----7/8-|----------7/8---------7/8-----|
------------------|----------7/8---------7/8-----7/8-|----------7/8---------7/8-----|
------------------|----------5/6---------5/6-----5/6-|----------5/6---------5/6-----|
------------------|--0-0-0-0-----0-0-0-0-----0-0-----|--0-0-0-0-----0-0-0-0---------|


                                                                         
------------------|------------------|----------------------------------|
------------------|------------------|----------------------------------|
------------------|------------------|----------7/8---------7/8-----7/8-|
------------------|------------------|----------7/8---------7/8-----7/8-|
------------------|------------------|----------5/6---------5/6-----5/6-|
------------------|------------------|--0-0-0-0-----0-0-0-0-----0-0-----|


                                                                                        
------------------------------|------------------|------------------|------------------|
------------------------------|------------------|------------------|------------------|
----------7/8---------7/8-----|------------------|------------------|------------------|
----------7/8---------7/8-----|------------------|------------------|------------------|
----------5/6---------5/6-----|------------------|------------------|------------------|
--0-0-0-0-----0-0-0-0---------|------------------|------------------|------------------|


                                                                                         
------------------|----------------------------------|----------------------------------|
------------------|----------------------------------|----------------------------------|
------------------|----------7/8---------7/8-----7/8-|----------7/8---------7/8-----5/6-|
------------------|----------7/8---------7/8-----7/8-|----------7/8---------7/8-----5/6-|
------------------|----------5/6---------5/6-----5/6-|----------5/6---------5/6-----3/4-|
------------------|--0-0-0-0-----0-0-0-0-----0-0-----|--0-0-0-0-----0-0-0-0-----0-0-----|


                                                                      
----------------------------------|----------------------------------|
----------------------------------|----------------------------------|
----------7/8---------7/8-----7/8-|----------7/8---------7/8-----5/6-|
----------7/8---------7/8-----7/8-|----------7/8---------7/8-----5/6-|
----------5/6---------5/6-----5/6-|----------5/6---------5/6-----3/4-|
--0-0-0-0-----0-0-0-0-----0-0-----|--0-0-0-0-----0-0-0-0-----0-0-----|


                                                                      
----------------------------------|----------------------------------|
----------------------------------|----------------------------------|
----------7/8---------7/8-----7/8-|----------7/8---------7/8-----5/6-|
----------7/8---------7/8-----7/8-|----------7/8---------7/8-----5/6-|
----------5/6---------5/6-----5/6-|----------5/6---------5/6-----3/4-|
--0-0-0-0-----0-0-0-0-----0-0-----|--0-0-0-0-----0-0-0-0-----0-0-----|


                                                                      
----------------------------------|----------------------------------|
----------------------------------|----------------------------------|
----------7/8---------7/8-----7/8-|----------7/8---------7/8-----5/6-|
----------7/8---------7/8-----7/8-|----------7/8---------7/8-----5/6-|
----------5/6---------5/6-----5/6-|----------5/6---------5/6-----3/4-|
--0-0-0-0-----0-0-0-0-----0-0-----|--0-0-0-0-----0-0-0-0-----0-0-----|


                                                                  
----------------------------------|------------------------------|
----------------------------------|------------------------------|
----------7/8---------7/8-----7/8-|----------7/8---------7/8-----|
----------7/8---------7/8-----7/8-|----------7/8---------7/8-----|
----------5/6---------5/6-----5/6-|----------5/6---------5/6-----|
--0-0-0-0-----0-0-0-0-----0-0-----|--0-0-0-0-----0-0-0-0---------|


                                                                  
----------------------------------|------------------------------|
----------------------------------|------------------------------|
----------7/8---------7/8-----7/8-|----------7/8---------7/8-----|
----------7/8---------7/8-----7/8-|----------7/8---------7/8-----|
----------5/6---------5/6-----5/6-|----------5/6---------5/6-----|
--0-0-0-0-----0-0-0-0-----0-0-----|--0-0-0-0-----0-0-0-0---------|


                                                                  
----------------------------------|------------------------------|
----------------------------------|------------------------------|
----------7/8---------7/8-----7/8-|----------7/8---------7/8-----|
----------7/8---------7/8-----7/8-|----------7/8---------7/8-----|
----------5/6---------5/6-----5/6-|----------5/6---------5/6-----|
--0-0-0-0-----0-0-0-0-----0-0-----|--0-0-0-0-----0-0-0-0---------|


                                                                                         
----------------------------------|------------------------------|----------------------|
----------------------------------|------------------------------|----------------------|
----------7/8---------7/8-----7/8-|----------7/8---------7/8-----|--7----5----7----5----|
----------7/8---------7/8-----7/8-|----------7/8---------7/8-----|--7----5----7----5----|
----------5/6---------5/6-----5/6-|----------5/6---------5/6-----|--5----3----5----3----|
--0-0-0-0-----0-0-0-0-----0-0-----|--0-0-0-0-----0-0-0-0---------|----------------------|


                                                                       
-----------------------|----------------------|-----------------------|
-----------------------|----------------------|-----------------------|
--7----5----7----5--8--|--7----5----7----5----|--7----5----7----5--8--|
--7----5----7----5--8--|--7----5----7----5----|--7----5----7----5--8--|
--5----3----5----3--6--|--5----3----5----3----|--5----3----5----3--6--|
-----------------------|----------------------|-----------------------|


                                                                       
----------------------|------------------------|----------------------|
----------------------|------------------------|----------------------|
--9----7----9----7----|--9----7----9----7--10--|--9----7----9----7----|
--9----7----9----7----|--9----7----9----7--10--|--9----7----9----7----|
--7----5----7----5----|--7----5----7----5--8---|--7----5----7----5----|
----------------------|------------------------|----------------------|


                                                                                  
------------------------|------------------|------------------|------------------|
------------------------|------------------|------------------|------------------|
--9----7----9----7--10--|------------------|------------------|------------------|
--9----7----9----7--10--|------------------|------------------|------------------|
--7----5----7----5--8---|------------------|------------------|------------------|
------------------------|------------------|------------------|------------------|


                                                                            
------------------|------------------|------------------|------------------|
------------------|------------------|------------------|------------------|
------------------|------------------|------------------|------------------|
------------------|------------------|------------------|------------------|
------------------|------------------|------------------|------------------|
------------------|------------------|------------------|------------------|


                                                                            
------------------|------------------|------------------|------------------|
------------------|------------------|------------------|------------------|
------------------|------------------|------------------|------------------|
------------------|------------------|------------------|------------------|
------------------|------------------|------------------|------------------|
------------------|------------------|------------------|------------------|


                                                                            
------------------|------------------|------------------|------------------|
------------------|------------------|------------------|------------------|
------------------|------------------|------------------|------------------|
------------------|------------------|------------------|------------------|
------------------|------------------|------------------|------------------|
------------------|------------------|------------------|------------------|


                                                                                         
------------------|----------------------------------|----------------------------------|
------------------|----------------------------------|----------------------------------|
------------------|----------7/8---------7/8-----7/8-|----------7/8---------7/8-----5/6-|
------------------|----------7/8---------7/8-----7/8-|----------7/8---------7/8-----5/6-|
------------------|----------5/6---------5/6-----5/6-|----------5/6---------5/6-----3/4-|
------------------|--0-0-0-0-----0-0-0-0-----0-0-----|--0-0-0-0-----0-0-0-0-----0-0-----|


                                                                      
----------------------------------|----------------------------------|
----------------------------------|----------------------------------|
----------7/8---------7/8-----7/8-|----------7/8---------7/8-----5/6-|
----------7/8---------7/8-----7/8-|----------7/8---------7/8-----5/6-|
----------5/6---------5/6-----5/6-|----------5/6---------5/6-----3/4-|
--0-0-0-0-----0-0-0-0-----0-0-----|--0-0-0-0-----0-0-0-0-----0-0-----|


                                                                      
----------------------------------|----------------------------------|
----------------------------------|----------------------------------|
----------7/8---------7/8-----7/8-|----------7/8---------7/8-----5/6-|
----------7/8---------7/8-----7/8-|----------7/8---------7/8-----5/6-|
----------5/6---------5/6-----5/6-|----------5/6---------5/6-----3/4-|
--0-0-0-0-----0-0-0-0-----0-0-----|--0-0-0-0-----0-0-0-0-----0-0-----|


                                                                      
----------------------------------|----------------------------------|
----------------------------------|----------------------------------|
----------7/8---------7/8-----7/8-|----------7/8---------7/8-----5/6-|
----------7/8---------7/8-----7/8-|----------7/8---------7/8-----5/6-|
----------5/6---------5/6-----5/6-|----------5/6---------5/6-----3/4-|
--0-0-0-0-----0-0-0-0-----0-0-----|--0-0-0-0-----0-0-0-0-----0-0-----|


                                                                  
----------------------------------|------------------------------|
----------------------------------|------------------------------|
----------7/8---------7/8-----7/8-|----------7/8---------7/8-----|
----------7/8---------7/8-----7/8-|----------7/8---------7/8-----|
----------5/6---------5/6-----5/6-|----------5/6---------5/6-----|
--0-0-0-0-----0-0-0-0-----0-0-----|--0-0-0-0-----0-0-0-0---------|


                                                                  
----------------------------------|------------------------------|
----------------------------------|------------------------------|
----------7/8---------7/8-----7/8-|----------7/8---------7/8-----|
----------7/8---------7/8-----7/8-|----------7/8---------7/8-----|
----------5/6---------5/6-----5/6-|----------5/6---------5/6-----|
--0-0-0-0-----0-0-0-0-----0-0-----|--0-0-0-0-----0-0-0-0---------|


                                                                  
----------------------------------|------------------------------|
----------------------------------|------------------------------|
----------7/8---------7/8-----7/8-|----------7/8---------7/8-----|
----------7/8---------7/8-----7/8-|----------7/8---------7/8-----|
----------5/6---------5/6-----5/6-|----------5/6---------5/6-----|
--0-0-0-0-----0-0-0-0-----0-0-----|--0-0-0-0-----0-0-0-0---------|


                                                                                         
----------------------------------|------------------------------|----------------------|
----------------------------------|------------------------------|----------------------|
----------7/8---------7/8-----7/8-|----------7/8---------7/8-----|--7----5----7----5----|
----------7/8---------7/8-----7/8-|----------7/8---------7/8-----|--7----5----7----5----|
----------5/6---------5/6-----5/6-|----------5/6---------5/6-----|--5----3----5----3----|
--0-0-0-0-----0-0-0-0-----0-0-----|--0-0-0-0-----0-0-0-0---------|----------------------|


                                             
-----------------------|-------------------||
-----------------------|-------------------||
--7----5----7----5--8--|--7----------------||
--7----5----7----5--8--|--7----------------||
--5----3----5----3--6--|--5----------------||
-----------------------|-------------------||
Acordes para guitarra
x

Todo acerca de Rammstein