Acordes para guitarra

Indice Rainbow

guitartabs





Guitar
                                          
E||--------------------------------------|
B||--------------------------------------|
G||--------------------------------------|
D||--0--0--0--2--0--0--3--0--0--5--0--0--|
A||--------------------------------------|
E||--------------------------------------|


                                                                              
--------------------------------------|--------------------------------------|
--------------------------------------|--------------------------------------|
--------------------------------------|--------------------------------------|
--7--0--0--5--0--0--3--0--0--2--0--0--|--------------------------------------|
--------------------------------------|--3--0--0--5--0--0--7--0--0--8--0--0--|
--------------------------------------|--------------------------------------|


                                                                              
------------------------------------------|
------------------------------------------|  
------------------------------------------|
------------------------------------------|
--10--0--0--13--0--0--12--0--0--10--0--0--|
Acordes para guitarra
x

Todo acerca de Rainbow