Acordes para guitarra

Indice Rage Against The Machine

guitartabs





     Bullet in the head - Rage Against the machine
-------------------------------------------------------------------------------

Tabbed By :Barnaby Brampton 
Tuning:standard (eadg)
 Intro/verse/solo
G|----------------------|
D|--------------14------|
A|--------------12------|
E|-00--000-0h12---------|
 Fill
G|-------------------------------------------------------|
D|--------------------------14-------------------12------|
A|--------------------------12-------------12p14---------|
E|-00--000-x---00--000-0h12----00--000-12----------------|
 Chorus
G|----------------------------------------------|
D|----------------------------------------------|
A|----------------------------------------------|
E|---0-3-5---7-3-5-0---0-3-5---7-3-5-0----------|
 outro
G|------------------------------------------------------------------------------|
D|------------------------------------------------------------------------------|
A|------------------------------------^^------^^--------------------------------|
E|--7777-3333-5555-0000---(repeated)--66-6666-66-6666-(repeat)-6666666666666666-|

| ^ Stressed note
| /  slide up
| \  slide down
| h  hammer-on
| p  pull-off
| ~  vibrato
| +  harmonic
| x  Mute note
Acordes para guitarra
x

Todo acerca de Rage Against The Machine