Acordes para guitarra

Indice Rage Against The Machine

guitartabs





 ---------------------------------------------------------------------------
			             Bullet in the Head - Rage Aginst the Machine
 ---------------------------------------------------------------------------


Tuning: E A D G
 
                                                                    x7
G|---------------------------13----------------------------13---------|
D|---------------------------12----------------------------12---------|
A|--------------------------------------------------------------------|
E|----12--12---12-12-12---0---------12--12---12-12-12---0-------------|



G|---------------------------13-----------------------------------12h14---|
D|---------------------------12---------------------------12h14-----------|
A|------------------------------------------------------------------------|
E|----12--12---12-12-12---0--------12--12---12-12-12---0------------------|



G|---------------------------13----------------------------13/14--------|
D|---------------------------12----------------------------12/13--------|
A|----------------------------------------------------------------------|
E|----12--12---12-12-12---0--------12--12---12-12-12---0----------------|



G|---------------------------13----------------------------13---------|
D|---------------------------12----------------------------12---------|
A|--------------------------------------------------------------------|
E|----12--12---12-12-12---0---------12--12---12-12-12---0-------------|


chourus
G|-----------------------------------------------------------------------|
D|-----------------------------------------------------------------------|
A|-----------------------------------------------------------------------|
E|--0---3---5~------7---3---5---0~------0---3---5~------7---3---5---0~---|


verse                                                                x8                     
G|---------------------------13----------------------------13---------|
D|---------------------------12----------------------------12---------|
A|--------------------------------------------------------------------|
E|----12--12---12-12-12---0---------12--12---12-12-12---0-------------|


chourus
G|-----------------------------------------------------------------------|
D|-----------------------------------------------------------------------|
A|-----------------------------------------------------------------------|
E|--0---3---5~------7---3---5---0~------0---3---5~------7---3---5---0~---|


verse
G|---------------------------13----------------------------13---------|
D|---------------------------12----------------------------12---------|
A|--------------------------------------------------------------------|
E|----12--12---12-12-12---0---------12--12---12-12-12---0-------------|



G|---------------------------13----------------------------13/14--------|
D|---------------------------12----------------------------12/13--------|
A|----------------------------------------------------------------------|
E|----12--12---12-12-12---0--------12--12---12-12-12---0----------------|


                                                                     x8
G|---------------------------13----------------------------13---------|
D|---------------------------12----------------------------12---------|
A|--------------------------------------------------------------------|
E|----12--12---12-12-12---0---------12--12---12-12-12---0-------------|


chourus
G|-----------------------------------------------------------------------|
D|-----------------------------------------------------------------------|
A|-----------------------------------------------------------------------|
E|--0---3---5~------7---3---5---0~------0---3---5~------7---3---5---0~---|


                                         repeat many times
G|-------------------------------------------------|
D|-------------------------------------------------|
A|--7--7--7--7--7--7-------------------------------|
E|---------------------5h6p5--0---3h4p3---0--0-----|


outro
G|---------------------------------------------------------------|
D|---------------------------------------------------------------|
A|--7-7--7-7--7-7--7-7--7-7--7-7--7-7--7-7---777777777777777-7---|
E|---------------------------------------------------------------|


| ~  let it ring
| /  slide up
| h  hammer-on
| p  pull-off
===========================================================================

this tab sounds really good and im only 12

Acordes para guitarra
x

Todo acerca de Rage Against The Machine