Acordes para guitarra

Indice Rage Against The Machine

guitartabs





Verse              x4       x4
|-------------------|---------|
|-------------------|---------|
|------------------o|--------o|
|-5--5--5-5--5--5--o|--------o|
|-5--5--5-5--5--5---|---------|
|-------------------|-17b-17b-| The second bit is only in the first verse

Chorus                       1st Time only
|----------------------------|------|
|----------------------------|------|
|----------------------------|------|
|----------------------------|------|
|-2----------2-------2-------|------|
|-0--3--5------3--5--0-------|-1bd--|

Solo: w/ wah
|-12-0-0-10-0-0-8-0-0-7-0-0-5-0-3-0-0-0-0-0-0-0-0-0-|
|---------------------------------------------------|
|---------------------------------------------------|
|---------------------------------------------------|
|---------------------------------------------------|
|---------------------------------------------------|x2

|-15-------14-------13-------12------11--------|
|----14-------13-------12-------11------10-----|
|-------12-------11-------10-------9-------8---|
|----------------------------------------------|
|----------------------------------------------|
|----------------------------------------------|

|-15-------14-------13------13-12-------------|
|----14-------13-------12---------10----------|
|-------12-------11-------------------9~~~~~--|
|---------------------------------------------|
|---------------------------------------------|
|---------------------------------------------|

|-------------------------------------------------------------15b-|
|-15~~~~~~-15~~~~~~~-15b-14-12--------15~~~~~-15~~~~~-------------|
|------------------------------14-12~--------------------12-------|
|-----------------------------------------------------------------|
|-----------------------------------------------------------------|
|-----------------------------------------------------------------|

Breakdown:
|-----------------------------------------------------------------|
|-----------------------------------------------------------------|
|-----------------------------------------------------------------|
|-9-9-9-9-9-7---------------------9-9-9-9-9-7---------------------|
|-7-7-7-7-7-5-7-8-7---5-7-5-------7-7-7-7-7-5-7-8-7---5-7-5-------|
|-------------5-6-5-0-3-5-3-0-0-0-------------5-6-5-0-3-5-3-0-0-0-|x8

Then there is a pick slide and the bass takes over.

Outro:
|-----------------------------------------------------------------|
|-----------------------------------------------------------------|
|-----------------------------------------------------------------|
|-9-9-9-9-9-7---------------------9-9-9-9-9-7---------------------|
|-7-7-7-7-7-5-7-8-7---5-7-5-------7-7-7-7-7-5-7-8-7---5-7-5-2-2-2-|
|-------------5-6-5-0-3-5-3-0-0-0-------------5-6-5-0-3-5-3-0-0-0-|x8

|--------------------------------|
|--------------------------------|
|-9-9-------------9-9------------|
|-9-9-------------9-9------------|
|-7-7-------------7-7------------|
|------0-0-0-0---------0-0-0-0-0-| x4

|-----------------------------------------------------------------|
|-----------------------------------------------------------------|
|-----------------------------------------------------------------|
|-----------------------------------------------------------------|
|-2-2-2-2-2-2-2-2-2-2-2-2-2-2-2-2-2-2-2-2-2-2-2-2-2-2-2-2-2-2-2-2-|
Acordes para guitarra
x

Todo acerca de Rage Against The Machine