Acordes para guitarra

Indice Rage Against The Machine

guitartabs





Rage Against The Machine - Bullet In The Head


Verse
G|--------------7--|
D|--------------6--|
A|-7-7--7-7-7------|
E|------------0----| <-- mute 'E' with left thumb

Variations
G|--------------6/7--|
D|--------------5/6--|
A|-7-7--7-7-7--------|
E|------------0------|

G|----------------7-9--|
D|------------7-9------|
A|-7-7--7-7-7----------|
E|---------------------|

Chorus
G|-----------------------|------------------|
D|-----------------------|------------------|
A|-----------------------|------------------|
E|-0-3-5---7-3-5-0---1/2-|-0-3-5---7-3-5-0--|

Ending
G|-----------------------------------|
D|-----------------------------------|
A|-7-7-7-7-7-5-----------------------|
E|-------------5-6-5-0-3-5-3-0-0-0-0-|

G|---------------|
D|---------------|
A|-7--7----------|
E|-------0-0-0-0-|

G|-------------------------------------|
D|-------------------------------------|
A|-7-7-7-7-7-7-7-7-7-7-7-7-7-7-7-7-7\--|
Acordes para guitarra
x

Todo acerca de Rage Against The Machine