Acordes para guitarra

Indice Rage Against The Machine

guitartabs





Rage Against The Machine
Voice of the Voiceless - Bass

Chorus
G------------------
D----5-------------
A--3---5-3-5-3-5-3-
E------------------

Pre-Verse
G-------------
D-------------
A-3-5-3-------
E-------3-5-3-

Verse
G--------------
D--------------
A--------------
Acordes para guitarra
x

Todo acerca de Rage Against The Machine