Acordes para guitarra

Indice Rage Against The Machine

guitartabs





Song: Tire Me
Band: Rage Against the Machine
Album: Evil Empire (1996)
Bassist: Tim Commerford
Tabbed by: Jay Yaworski
Tunning: Dropped D

Intro:                           H
G|-------------------------------4-----------|
d|-------------------------------4-----------|
A|--------------------3----------4---------3-|
D|-3b003b003b--3b00345---3b003b004--3b00345--|

                                 H
G|-------------------------------4=-|
d|-------------------------------4=-|
A|--------------------3----------4=-|
D|-3b003b003b--3b00345---3b003b004=-|

Verse:                           H
G|-------------------------------4-----------|
d|-------------------------------4-----------|
A|--------------------3----------4---------3-|
D|-3b003b003b--3b00345---3b003b004--3b00345--|

Chorus:
G|-----------------|
d|-----------------|
A|--85-85-85-85----|
D|-0--0--0--0--03--|

Bridge:                         H                                       H
G|------------------------------4=--------------------------------------4=-|
d|------------------------------4=--------------------------------------4=-|
A|------------------------------4=--------------------------------------4=-|
D|-3b003b003b-----------3b003b004=---------3b003b003b-----------3b003b004=-|

G|----------------------|
d|----------------------|
A|----------------------|
D|-3b003b003b-----------|
this last piece is repeated (sorry CD isn't with me to remember just how much) till...
G|----------------------------------|
d|----------------------------------|
A|----------------------------------|
D|-0-0-0-0-0-0-0-0-0----------------|
again I'm not too sure on exactly the amount of oped D's played before the break

Outro:
same as chorus


Acordes para guitarra
x

Todo acerca de Rage Against The Machine