Acordes para guitarra

Indice Rage Against The Machine

guitartabs





---------------------------------------------------------------------------
                People Of The Sun - Rage Against The Machine
---------------------------------------------------------------------------

Tabbed By: Nick Lopeke

Tuning: Standard (EADG)

h = Hammer on
R = Rest

G|-------------|
D|-------------| x1
A|-5h7-5-3---3-|
E|---------5---|

G|----------------------|
D|----------------------| x6
A|---3-5-3------3-5-3---|
E|-5-------5--5-------R-|

G|----------------|      |------------/666666-|
D|----------------| x7   |--------------------| x1
A|----------------|      |--------------------|
E|-3333333333-1h3-|      |-3333333333---------|

G|----------------------|
D|----------------------| x2
A|---3-5-3------3-5-3---|
E|-5-------5--5-------R-|

G|---------------------------------------------|
D|---------------------------------------------| x2
A|---------------------------------5h7-5-3---3-|
E|-5-------R-------5-------R---------------5---|

G|----------------|
D|----------------| x16
A|----------------|
Acordes para guitarra
x

Todo acerca de Rage Against The Machine