Acordes para guitarra

Indice Rage Against The Machine

guitartabs





Tabbed by Max K


Intro and Chorus

E|------------------------------------|
B|------------------------------------| 
G|---------------------x-x-x-x-x-x-x--|
D|---------------------x-x-x-x-x-x-x--|
A|--10/12--15--10/10---x-x-x-x-x-x-x--|
D|--10/12--15--10/12---x-x-x-x-x-x-x--|

Verse

E|----------------|
B|----------------|  Wah on
G|----------------|  
D|----------------|
A|--35h3--353-----|
D|----------------|

Bridge
                                      Wah on    However many times needed
E|--v16-v16-v16-v16-v16-v16-v16-b16----16--16-16--16-16--16-16-16-16-16--|
B|-------------------------------------16--16-16--16-16--16-16-16-16-16--| 
G|-----------------------------------------------------------------------| 
D|-----------------------------------------------------------------------|
A|-----------------------------------------------------------------------|
D|-----------------------------------------------------------------------|

E|------------------------------------------------------------------|
B|------------------------------------------------------------------|  
G|--s16-s15-s14-s13-s16-s15-s14-s13-s16-s15-s14-s13-16b-16b-16b-16b-|  
D|------------------------------------------------------------------|
A|------------------------------------------------------------------|
D|------------------------------------------------------------------|

just stare... wah off

|--------------------------------|
|--------------------------------|
|--------------------------------|
|--------------3-----------------|
|----5--3---------5--3--5--------|
|-3--------0---------------3--5--|


Acordes para guitarra
x

Todo acerca de Rage Against The Machine